  0
SECTION
  2
HEADER
  9
$ACADVER
  1
AC1021
  9
$ACADMAINTVER
 70
    25
  9
$DWGCODEPAGE
  3
ANSI_1250
  9
$LASTSAVEDBY
  1
tomsko
  9
$INSBASE
 10
0.0
 20
0.0
 30
0.0
  9
$EXTMIN
 10
0.0
 20
0.0
 30
0.0
  9
$EXTMAX
 10
425.6989697953841
 20
1011.62518718501
 30
0.0
  9
$LIMMIN
 10
0.0
 20
0.0
  9
$LIMMAX
 10
12.0
 20
9.0
  9
$ORTHOMODE
 70
     0
  9
$REGENMODE
 70
     1
  9
$FILLMODE
 70
     1
  9
$QTEXTMODE
 70
     0
  9
$MIRRTEXT
 70
     0
  9
$LTSCALE
 40
1.0
  9
$ATTMODE
 70
     1
  9
$TEXTSIZE
 40
0.2
  9
$TRACEWID
 40
0.05
  9
$TEXTSTYLE
  7
Standard
  9
$CLAYER
  8
0
  9
$CELTYPE
  6
ByLayer
  9
$CECOLOR
 62
   256
  9
$CELTSCALE
 40
1.0
  9
$DISPSILH
 70
     0
  9
$DIMSCALE
 40
1.0
  9
$DIMASZ
 40
0.18
  9
$DIMEXO
 40
0.0625
  9
$DIMDLI
 40
0.38
  9
$DIMRND
 40
0.0
  9
$DIMDLE
 40
0.0
  9
$DIMEXE
 40
0.18
  9
$DIMTP
 40
0.0
  9
$DIMTM
 40
0.0
  9
$DIMTXT
 40
0.18
  9
$DIMCEN
 40
0.09
  9
$DIMTSZ
 40
0.0
  9
$DIMTOL
 70
     0
  9
$DIMLIM
 70
     0
  9
$DIMTIH
 70
     1
  9
$DIMTOH
 70
     1
  9
$DIMSE1
 70
     0
  9
$DIMSE2
 70
     0
  9
$DIMTAD
 70
     0
  9
$DIMZIN
 70
     0
  9
$DIMBLK
  1

  9
$DIMASO
 70
     1
  9
$DIMSHO
 70
     1
  9
$DIMPOST
  1

  9
$DIMAPOST
  1

  9
$DIMALT
 70
     0
  9
$DIMALTD
 70
     2
  9
$DIMALTF
 40
25.4
  9
$DIMLFAC
 40
1.0
  9
$DIMTOFL
 70
     0
  9
$DIMTVP
 40
0.0
  9
$DIMTIX
 70
     0
  9
$DIMSOXD
 70
     0
  9
$DIMSAH
 70
     0
  9
$DIMBLK1
  1

  9
$DIMBLK2
  1

  9
$DIMSTYLE
  2
Standard
  9
$DIMCLRD
 70
     0
  9
$DIMCLRE
 70
     0
  9
$DIMCLRT
 70
     0
  9
$DIMTFAC
 40
1.0
  9
$DIMGAP
 40
0.09
  9
$DIMJUST
 70
     0
  9
$DIMSD1
 70
     0
  9
$DIMSD2
 70
     0
  9
$DIMTOLJ
 70
     1
  9
$DIMTZIN
 70
     0
  9
$DIMALTZ
 70
     0
  9
$DIMALTTZ
 70
     0
  9
$DIMUPT
 70
     0
  9
$DIMDEC
 70
     4
  9
$DIMTDEC
 70
     4
  9
$DIMALTU
 70
     2
  9
$DIMALTTD
 70
     2
  9
$DIMTXSTY
  7
Standard
  9
$DIMAUNIT
 70
     0
  9
$DIMADEC
 70
     0
  9
$DIMALTRND
 40
0.0
  9
$DIMAZIN
 70
     0
  9
$DIMDSEP
 70
    46
  9
$DIMATFIT
 70
     3
  9
$DIMFRAC
 70
     0
  9
$DIMLDRBLK
  1

  9
$DIMLUNIT
 70
     2
  9
$DIMLWD
 70
    -2
  9
$DIMLWE
 70
    -2
  9
$DIMTMOVE
 70
     0
  9
$DIMFXL
 40
1.0
  9
$DIMFXLON
 70
     0
  9
$DIMJOGANG
 40
0.7853981633974483
  9
$DIMTFILL
 70
     0
  9
$DIMTFILLCLR
 70
     0
  9
$DIMARCSYM
 70
     0
  9
$DIMLTYPE
  6

  9
$DIMLTEX1
  6

  9
$DIMLTEX2
  6

  9
$LUNITS
 70
     2
  9
$LUPREC
 70
     4
  9
$SKETCHINC
 40
0.1
  9
$FILLETRAD
 40
0.0
  9
$AUNITS
 70
     0
  9
$AUPREC
 70
     0
  9
$MENU
  1
.
  9
$ELEVATION
 40
0.0
  9
$PELEVATION
 40
0.0
  9
$THICKNESS
 40
0.0
  9
$LIMCHECK
 70
     0
  9
$CHAMFERA
 40
0.0
  9
$CHAMFERB
 40
0.0
  9
$CHAMFERC
 40
0.0
  9
$CHAMFERD
 40
0.0
  9
$SKPOLY
 70
     0
  9
$TDCREATE
 40
2452643.146717604
  9
$TDUCREATE
 40
2452643.063384271
  9
$TDUPDATE
 40
2458683.618109074
  9
$TDUUPDATE
 40
2458683.534775741
  9
$TDINDWG
 40
0.0026302431
  9
$TDUSRTIMER
 40
0.000216169
  9
$USRTIMER
 70
     1
  9
$ANGBASE
 50
0.0
  9
$ANGDIR
 70
     0
  9
$PDMODE
 70
     0
  9
$PDSIZE
 40
0.0
  9
$PLINEWID
 40
0.0
  9
$SPLFRAME
 70
     0
  9
$SPLINETYPE
 70
     6
  9
$SPLINESEGS
 70
     8
  9
$HANDSEED
  5
392
  9
$SURFTAB1
 70
     6
  9
$SURFTAB2
 70
     6
  9
$SURFTYPE
 70
     6
  9
$SURFU
 70
     6
  9
$SURFV
 70
     6
  9
$UCSBASE
  2

  9
$UCSNAME
  2

  9
$UCSORG
 10
0.0
 20
0.0
 30
0.0
  9
$UCSXDIR
 10
1.0
 20
0.0
 30
0.0
  9
$UCSYDIR
 10
0.0
 20
1.0
 30
0.0
  9
$UCSORTHOREF
  2

  9
$UCSORTHOVIEW
 70
     0
  9
$UCSORGTOP
 10
0.0
 20
0.0
 30
0.0
  9
$UCSORGBOTTOM
 10
0.0
 20
0.0
 30
0.0
  9
$UCSORGLEFT
 10
0.0
 20
0.0
 30
0.0
  9
$UCSORGRIGHT
 10
0.0
 20
0.0
 30
0.0
  9
$UCSORGFRONT
 10
0.0
 20
0.0
 30
0.0
  9
$UCSORGBACK
 10
0.0
 20
0.0
 30
0.0
  9
$PUCSBASE
  2

  9
$PUCSNAME
  2

  9
$PUCSORG
 10
0.0
 20
0.0
 30
0.0
  9
$PUCSXDIR
 10
1.0
 20
0.0
 30
0.0
  9
$PUCSYDIR
 10
0.0
 20
1.0
 30
0.0
  9
$PUCSORTHOREF
  2

  9
$PUCSORTHOVIEW
 70
     0
  9
$PUCSORGTOP
 10
0.0
 20
0.0
 30
0.0
  9
$PUCSORGBOTTOM
 10
0.0
 20
0.0
 30
0.0
  9
$PUCSORGLEFT
 10
0.0
 20
0.0
 30
0.0
  9
$PUCSORGRIGHT
 10
0.0
 20
0.0
 30
0.0
  9
$PUCSORGFRONT
 10
0.0
 20
0.0
 30
0.0
  9
$PUCSORGBACK
 10
0.0
 20
0.0
 30
0.0
  9
$USERI1
 70
     0
  9
$USERI2
 70
     0
  9
$USERI3
 70
     0
  9
$USERI4
 70
     0
  9
$USERI5
 70
     0
  9
$USERR1
 40
0.0
  9
$USERR2
 40
0.0
  9
$USERR3
 40
0.0
  9
$USERR4
 40
0.0
  9
$USERR5
 40
0.0
  9
$WORLDVIEW
 70
     1
  9
$SHADEDGE
 70
     3
  9
$SHADEDIF
 70
    70
  9
$TILEMODE
 70
     1
  9
$MAXACTVP
 70
    64
  9
$PINSBASE
 10
0.0
 20
0.0
 30
0.0
  9
$PLIMCHECK
 70
     0
  9
$PEXTMIN
 10
0.0
 20
0.0
 30
0.0
  9
$PEXTMAX
 10
0.0
 20
0.0
 30
0.0
  9
$PLIMMIN
 10
0.0
 20
0.0
  9
$PLIMMAX
 10
0.0
 20
0.0
  9
$UNITMODE
 70
     0
  9
$VISRETAIN
 70
     1
  9
$PLINEGEN
 70
     0
  9
$PSLTSCALE
 70
     1
  9
$TREEDEPTH
 70
  3020
  9
$CMLSTYLE
  2
Standard
  9
$CMLJUST
 70
     0
  9
$CMLSCALE
 40
1.0
  9
$PROXYGRAPHICS
 70
     1
  9
$MEASUREMENT
 70
     0
  9
$CELWEIGHT
370
    -1
  9
$ENDCAPS
280
     0
  9
$JOINSTYLE
280
     0
  9
$LWDISPLAY
290
     0
  9
$INSUNITS
 70
     1
  9
$HYPERLINKBASE
  1

  9
$STYLESHEET
  1

  9
$XEDIT
290
     1
  9
$CEPSNTYPE
380
     0
  9
$PSTYLEMODE
290
     1
  9
$FINGERPRINTGUID
  2
{FDEAD576-A652-11D2-9A35-0060089B3A3F}
  9
$VERSIONGUID
  2
{FBC2AE19-5C5C-49EC-81BC-71B1A3362A02}
  9
$EXTNAMES
290
     1
  9
$PSVPSCALE
 40
0.0
  9
$OLESTARTUP
290
     0
  9
$SORTENTS
280
   127
  9
$INDEXCTL
280
     0
  9
$HIDETEXT
280
     1
  9
$XCLIPFRAME
290
     0
  9
$HALOGAP
280
     0
  9
$OBSCOLOR
 70
   257
  9
$OBSLTYPE
280
     0
  9
$INTERSECTIONDISPLAY
280
     0
  9
$INTERSECTIONCOLOR
 70
   257
  9
$DIMASSOC
280
     2
  9
$PROJECTNAME
  1

  9
$CAMERADISPLAY
290
     0
  9
$LENSLENGTH
 40
50.0
  9
$CAMERAHEIGHT
 40
0.0
  9
$STEPSPERSEC
 40
2.0
  9
$STEPSIZE
 40
6.0
  9
$3DDWFPREC
 40
2.0
  9
$PSOLWIDTH
 40
0.25
  9
$PSOLHEIGHT
 40
4.0
  9
$LOFTANG1
 40
1.570796326794897
  9
$LOFTANG2
 40
1.570796326794897
  9
$LOFTMAG1
 40
0.0
  9
$LOFTMAG2
 40
0.0
  9
$LOFTPARAM
 70
     7
  9
$LOFTNORMALS
280
     1
  9
$LATITUDE
 40
37.795
  9
$LONGITUDE
 40
-122.394
  9
$NORTHDIRECTION
 40
0.0
  9
$TIMEZONE
 70
 -8000
  9
$LIGHTGLYPHDISPLAY
280
     1
  9
$TILEMODELIGHTSYNCH
280
     1
  9
$CMATERIAL
347
96
  9
$SOLIDHIST
280
     1
  9
$SHOWHIST
280
     1
  9
$DWFFRAME
280
     2
  9
$DGNFRAME
280
     0
  9
$REALWORLDSCALE
290
     1
  9
$INTERFERECOLOR
 62
     1
  9
$CSHADOW
280
     0
  9
$SHADOWPLANELOCATION
 40
0.0
  0
ENDSEC
  0
SECTION
  2
CLASSES
  0
CLASS
  1
ACDBDICTIONARYWDFLT
  2
AcDbDictionaryWithDefault
  3
ObjectDBX Classes
 90
        0
 91
        4
280
     0
281
     0
  0
CLASS
  1
ACDBPLACEHOLDER
  2
AcDbPlaceHolder
  3
ObjectDBX Classes
 90
        0
 91
        1
280
     0
281
     0
  0
CLASS
  1
LAYOUT
  2
AcDbLayout
  3
ObjectDBX Classes
 90
        0
 91
        1
280
     0
281
     0
  0
CLASS
  1
DICTIONARYVAR
  2
AcDbDictionaryVar
  3
ObjectDBX Classes
 90
        0
 91
        4
280
     0
281
     0
  0
CLASS
  1
TABLESTYLE
  2
AcDbTableStyle
  3
ObjectDBX Classes
 90
     4095
 91
        4
280
     0
281
     0
  0
CLASS
  1
MATERIAL
  2
AcDbMaterial
  3
ObjectDBX Classes
 90
     1153
 91
        4
280
     0
281
     0
  0
CLASS
  1
VISUALSTYLE
  2
AcDbVisualStyle
  3
ObjectDBX Classes
 90
     4095
 91
        4
280
     0
281
     0
  0
CLASS
  1
SCALE
  2
AcDbScale
  3
ObjectDBX Classes
 90
     1153
 91
        4
280
     0
281
     0
  0
CLASS
  1
CELLSTYLEMAP
  2
AcDbCellStyleMap
  3
ObjectDBX Classes
 90
     1152
 91
        4
280
     0
281
     0
  0
CLASS
  1
RASTERVARIABLES
  2
AcDbRasterVariables
  3
ISM
 90
        0
 91
        4
280
     0
281
     0
  0
CLASS
  1
SUN
  2
AcDbSun
  3
SCENEOE
 90
     1153
 91
        4
280
     0
281
     0
  0
CLASS
  1
MLEADERSTYLE
  2
AcDbMLeaderStyle
  3
ACDB_MLEADERSTYLE_CLASS
 90
     4095
 91
        4
280
     0
281
     0
  0
ENDSEC
  0
SECTION
  2
TABLES
  0
TABLE
  2
VPORT
  5
8
330
0
100
AcDbSymbolTable
 70
     1
  0
VPORT
  5
94
330
8
100
AcDbSymbolTableRecord
100
AcDbViewportTableRecord
  2
*Active
 70
     0
 10
0.0
 20
0.0
 11
1.0
 21
1.0
 12
388.7073161416903
 22
452.9922640488305
 13
0.0
 23
0.0
 14
0.5
 24
0.5
 15
0.5
 25
0.5
 16
0.0
 26
0.0
 36
1.0
 17
-27.66959356597965
 27
-19.53870295786157
 37
0.0
 40
1413.633613732671
 41
2.312781954887218
 42
50.0
 43
0.0
 44
0.0
 50
0.0
 51
0.0
 71
    16
 72
  1000
 73
     1
 74
     3
 75
     0
 76
     0
 77
     0
 78
     0
281
     0
 65
     1
110
0.0
120
0.0
130
0.0
111
1.0
121
0.0
131
0.0
112
0.0
122
1.0
132
0.0
 79
     0
146
0.0
348
9F
 60
     2
 61
     5
292
     1
282
     1
141
0.0
142
0.0
 63
   250
421
  3355443
361
ED
  0
ENDTAB
  0
TABLE
  2
LTYPE
  5
5
330
0
100
AcDbSymbolTable
 70
     2
  0
LTYPE
  5
14
330
5
100
AcDbSymbolTableRecord
100
AcDbLinetypeTableRecord
  2
ByBlock
 70
     0
  3

 72
    65
 73
     0
 40
0.0
  0
LTYPE
  5
15
330
5
100
AcDbSymbolTableRecord
100
AcDbLinetypeTableRecord
  2
ByLayer
 70
     0
  3

 72
    65
 73
     0
 40
0.0
  0
LTYPE
  5
16
330
5
100
AcDbSymbolTableRecord
100
AcDbLinetypeTableRecord
  2
Continuous
 70
     0
  3
Solid line
 72
    65
 73
     0
 40
0.0
  0
LTYPE
  5
128
330
5
100
AcDbSymbolTableRecord
100
AcDbLinetypeTableRecord
  2
CHAIN
 70
     0
  3
Chain ____ _ ____ _ ____ _ ____ _ ____ _ ____
 72
    65
 73
     4
 40
0.3543
 49
0.2362
 74
     0
 49
-0.0295
 74
     0
 49
0.0591
 74
     0
 49
-0.0295
 74
     0
  0
ENDTAB
  0
TABLE
  2
LAYER
  5
2
102
{ACAD_XDICTIONARY
360
221
102
}
330
0
100
AcDbSymbolTable
 70
     4
  0
LAYER
  5
10
330
2
100
AcDbSymbolTableRecord
100
AcDbLayerTableRecord
  2
0
 70
     0
 62
     7
  6
Continuous
370
    -3
390
F
347
98
  0
LAYER
  5
126
330
2
100
AcDbSymbolTableRecord
100
AcDbLayerTableRecord
  2
Linia środkowa zgięcia
 70
     0
 62
     4
  6
CHAIN
370
    25
390
F
347
98
  0
LAYER
  5
129
330
2
100
AcDbSymbolTableRecord
100
AcDbLayerTableRecord
  2
opis
 70
     0
 62
     1
  6
Continuous
370
    -3
390
F
347
98
1001
AcAecLayerStandard
1000

1000

  0
LAYER
  5
308
330
2
100
AcDbSymbolTableRecord
100
AcDbLayerTableRecord
  2
Grawer
 70
     0
 62
     2
  6
Continuous
370
    -3
390
F
347
98
1001
AcAecLayerStandard
1000

1000

  0
ENDTAB
  0
TABLE
  2
STYLE
  5
3
330
0
100
AcDbSymbolTable
 70
     2
  0
STYLE
  5
11
330
3
100
AcDbSymbolTableRecord
100
AcDbTextStyleTableRecord
  2
Standard
 70
     0
 40
0.0
 41
1.0
 50
0.0
 71
     0
 42
0.2
  3
arial.ttf
  4

1001
ACAD
1000
Arial
1071
        0
  0
STYLE
  5
12F
330
3
100
AcDbSymbolTableRecord
100
AcDbTextStyleTableRecord
  2
14mm
 70
     0
 40
14.0
 41
0.7
 50
0.0
 71
     0
 42
0.2
  3
romans.shx
  4

1001
AcadAnnotative
1000
AnnotativeData
1002
{
1070
     1
1070
     1
1002
}
1001
AcadAnnoPO
1070
     1
  0
ENDTAB
  0
TABLE
  2
VIEW
  5
6
330
0
100
AcDbSymbolTable
 70
     0
  0
ENDTAB
  0
TABLE
  2
UCS
  5
7
330
0
100
AcDbSymbolTable
 70
     0
  0
ENDTAB
  0
TABLE
  2
APPID
  5
9
330
0
100
AcDbSymbolTable
 70
     5
  0
APPID
  5
12
330
9
100
AcDbSymbolTableRecord
100
AcDbRegAppTableRecord
  2
ACAD
 70
     0
  0
APPID
  5
12A
330
9
100
AcDbSymbolTableRecord
100
AcDbRegAppTableRecord
  2
AcAecLayerStandard
 70
     0
  0
APPID
  5
12D
330
9
100
AcDbSymbolTableRecord
100
AcDbRegAppTableRecord
  2
AcadAnnotative
 70
     0
  0
APPID
  5
12E
330
9
100
AcDbSymbolTableRecord
100
AcDbRegAppTableRecord
  2
AcadAnnoPO
 70
     0
  0
APPID
  5
303
330
9
100
AcDbSymbolTableRecord
100
AcDbRegAppTableRecord
  2
ACAD_MLEADERVER
 70
     0
  0
ENDTAB
  0
TABLE
  2
DIMSTYLE
  5
A
330
0
100
AcDbSymbolTable
 70
     1
100
AcDbDimStyleTable
  0
DIMSTYLE
105
27
330
A
100
AcDbSymbolTableRecord
100
AcDbDimStyleTableRecord
  2
Standard
 70
     0
178
     0
340
11
  0
ENDTAB
  0
TABLE
  2
BLOCK_RECORD
  5
1
330
0
100
AcDbSymbolTable
 70
     1
  0
BLOCK_RECORD
  5
1F
330
1
100
AcDbSymbolTableRecord
100
AcDbBlockTableRecord
  2
*Model_Space
340
22
 70
     0
280
     1
281
     0
  0
BLOCK_RECORD
  5
58
330
1
100
AcDbSymbolTableRecord
100
AcDbBlockTableRecord
  2
*Paper_Space
340
59
 70
     0
280
     1
281
     0
  0
BLOCK_RECORD
  5
5D
330
1
100
AcDbSymbolTableRecord
100
AcDbBlockTableRecord
  2
*Paper_Space0
340
5E
 70
     0
280
     1
281
     0
  0
ENDTAB
  0
ENDSEC
  0
SECTION
  2
BLOCKS
  0
BLOCK
  5
20
330
1F
100
AcDbEntity
  8
0
100
AcDbBlockBegin
  2
*Model_Space
 70
     0
 10
0.0
 20
0.0
 30
0.0
  3
*Model_Space
  1
*Model_Space
  0
ENDBLK
  5
21
330
1F
100
AcDbEntity
  8
0
100
AcDbBlockEnd
  0
BLOCK
  5
5A
330
58
100
AcDbEntity
 67
     1
  8
0
100
AcDbBlockBegin
  2
*Paper_Space
 70
     0
 10
0.0
 20
0.0
 30
0.0
  3
*Paper_Space
  1
*Paper_Space
  0
ENDBLK
  5
5B
330
58
100
AcDbEntity
 67
     1
  8
0
100
AcDbBlockEnd
  0
BLOCK
  5
5F
330
5D
100
AcDbEntity
  8
0
100
AcDbBlockBegin
  2
*Paper_Space0
 70
     0
 10
0.0
 20
0.0
 30
0.0
  3
*Paper_Space0
  1
*Paper_Space0
  0
ENDBLK
  5
60
330
5D
100
AcDbEntity
  8
0
100
AcDbBlockEnd
  0
ENDSEC
  0
SECTION
  2
ENTITIES
  0
LINE
  5
226
330
1F
100
AcDbEntity
  8
0
100
AcDbLine
 10
44.36911193641618
 20
729.7056039257518
 30
0.0
 11
44.36936593535802
 21
896.7050823322288
 31
0.0
  0
LINE
  5
227
330
1F
100
AcDbEntity
  8
0
100
AcDbLine
 10
49.36936593535302
 20
901.7050747274457
 30
0.0
 11
197.0917546895971
 21
901.7050747274457
 31
0.0
  0
ARC
  5
228
330
1F
100
AcDbEntity
  8
0
100
AcDbCircle
 10
49.36936593535302
 20
896.7050747274457
 30
0.0
 40
5.0
100
AcDbArc
 50
90.0
 51
179.9999128556043
  0
LINE
  5
229
330
1F
100
AcDbEntity
  8
0
100
AcDbLine
 10
217.0917546895971
 20
921.7050747274457
 30
0.0
 11
217.0917546895971
 21
1006.62518718501
 31
0.0
  0
ARC
  5
22A
330
1F
100
AcDbEntity
  8
0
100
AcDbCircle
 10
197.0917546895971
 20
921.7050747274457
 30
0.0
 40
20.0
100
AcDbArc
 50
270.0
 51
0.0
  0
ARC
  5
22B
330
1F
100
AcDbEntity
  8
0
100
AcDbCircle
 10
222.0917546895971
 20
1006.62518718501
 30
0.0
 40
5.0
100
AcDbArc
 50
89.99999983851046
 51
180.0
  0
LINE
  5
22C
330
1F
100
AcDbEntity
  8
0
100
AcDbLine
 10
222.0917547036893
 20
1011.62518718501
 30
0.0
 11
230.2527046235809
 21
1011.62518716201
 31
0.0
  0
ARC
  5
22D
330
1F
100
AcDbEntity
  8
0
100
AcDbCircle
 10
230.2527046094892
 20
1006.62518716201
 30
0.0
 40
5.0
100
AcDbArc
 50
52.50012911542517
 51
89.99999983851046
  0
LINE
  5
22E
330
1F
100
AcDbEntity
  8
0
100
AcDbLine
 10
233.2965028154599
 20
1010.591960722643
 30
0.0
 11
256.7157764925719
 21
992.6218038397387
 31
0.0
  0
ARC
  5
22F
330
1F
100
AcDbEntity
  8
0
100
AcDbCircle
 10
253.6719782866021
 20
988.6550302791056
 30
0.0
 40
5.0
100
AcDbArc
 50
21.0000848722759
 51
52.50012911542517
  0
LINE
  5
230
330
1F
100
AcDbEntity
  8
0
100
AcDbLine
 10
258.3398777648299
 20
990.446876941397
 30
0.0
 11
299.1929639076029
 21
884.0214201748759
 31
0.0
  0
ARC
  5
231
330
1F
100
AcDbEntity
  8
0
100
AcDbCircle
 10
303.8608633858303
 20
885.8132668371659
 30
0.0
 40
5.0
100
AcDbArc
 50
201.0000848722759
 51
285.0002003380071
  0
LINE
  5
232
330
1F
100
AcDbEntity
  8
0
100
AcDbLine
 10
305.1549754984121
 20
880.9836422306289
 30
0.0
 11
388.6360911416291
 21
903.3526526045321
 31
0.0
  0
ARC
  5
233
330
1F
100
AcDbEntity
  8
0
100
AcDbCircle
 10
387.3419790290459
 20
908.182277211069
 30
0.0
 40
5.0
100
AcDbArc
 50
285.0002003380071
 51
8.999925036045704
  0
LINE
  5
234
330
1F
100
AcDbEntity
  8
0
100
AcDbLine
 10
392.280421755388
 20
908.9644430749709
 30
0.0
 11
385.2005241243319
 21
953.6655359926449
 31
0.0
  0
ARC
  5
235
330
1F
100
AcDbEntity
  8
0
100
AcDbCircle
 10
390.1389668506722
 20
954.4477018565467
 30
0.0
 40
5.0
100
AcDbArc
 50
105.1280037019451
 51
188.9999250360457
  0
LINE
  5
236
330
1F
100
AcDbEntity
  8
0
100
AcDbLine
 10
388.834085056551
 20
959.2744278176278
 30
0.0
 11
391.4512774234972
 21
959.9819729939809
 31
0.0
  0
ARC
  5
237
330
1F
100
AcDbEntity
  8
0
100
AcDbCircle
 10
392.756159217618
 20
955.1552470328998
 30
0.0
 40
5.0
100
AcDbArc
 50
59.45649029146172
 51
105.1280037019451
  0
LINE
  5
238
330
1F
100
AcDbEntity
  8
0
100
AcDbLine
 10
395.2971218532061
 20
959.4614645012298
 30
0.0
 11
413.5063160174459
 21
948.7167953488279
 31
0.0
  0
ARC
  5
239
330
1F
100
AcDbEntity
  8
0
100
AcDbCircle
 10
410.9653533818582
 20
944.4105778804978
 30
0.0
 40
5.0
100
AcDbArc
 50
9.000150050201965
 51
59.45649029146172
  0
LINE
  5
23A
330
1F
100
AcDbEntity
  8
0
100
AcDbLine
 10
415.9037930364088
 20
945.1927631388339
 30
0.0
 11
425.6374094499351
 21
883.738169400985
 31
0.0
  0
ARC
  5
23B
330
1F
100
AcDbEntity
  8
0
100
AcDbCircle
 10
420.6989697953841
 20
882.955984142649
 30
0.0
 40
5.0
100
AcDbArc
 50
285.0001052627709
 51
9.000150050201965
  0
LINE
  5
23C
330
1F
100
AcDbEntity
  8
0
100
AcDbLine
 10
421.9930738938033
 20
878.1263573887009
 30
0.0
 11
395.0737514151861
 21
870.9132936632777
 31
0.0
  0
ARC
  5
23D
330
1F
100
AcDbEntity
  8
0
100
AcDbCircle
 10
396.3678555136053
 20
866.0836669093287
 30
0.0
 40
5.0
100
AcDbArc
 50
105.0001052627709
 51
180.0
  0
LINE
  5
23E
330
1F
100
AcDbEntity
  8
0
100
AcDbLine
 10
391.3678555136053
 20
866.0836669093287
 30
0.0
 11
391.3678555136053
 21
856.1572289014348
 31
0.0
  0
ARC
  5
23F
330
1F
100
AcDbEntity
  8
0
100
AcDbCircle
 10
386.3678555136053
 20
856.1572289014348
 30
0.0
 40
5.0
100
AcDbArc
 50
284.9999520216726
 51
0.0
  0
LINE
  5
240
330
1F
100
AcDbEntity
  8
0
100
AcDbLine
 10
387.6619466948841
 20
851.3275986863418
 30
0.0
 11
155.074652359519
 21
789.0062297466707
 31
0.0
  0
ARC
  5
241
330
1F
100
AcDbEntity
  8
0
100
AcDbCircle
 10
156.3687435407983
 20
784.1765995315786
 30
0.0
 40
5.0
100
AcDbArc
 50
104.9999520216941
 51
180.0
  0
LINE
  5
242
330
1F
100
AcDbEntity
  8
0
100
AcDbLine
 10
151.3687435407983
 20
784.1765995315786
 30
0.0
 11
151.3687435407983
 21
752.503579976656
 31
0.0
  0
ARC
  5
243
330
1F
100
AcDbEntity
  8
0
100
AcDbCircle
 10
146.3687435407983
 20
752.503579976656
 30
0.0
 40
5.0
100
AcDbArc
 50
284.9999799959074
 51
0.0
  0
LINE
  5
244
330
1F
100
AcDbEntity
  8
0
100
AcDbLine
 10
147.6628370801072
 20
747.6739503933936
 30
0.0
 11
62.57948485821089
 21
724.8759667147497
 31
0.0
  0
ARC
  5
245
330
1F
100
AcDbEntity
  8
0
100
AcDbCircle
 10
61.28539131890193
 20
729.7055962980116
 30
0.0
 40
5.0
100
AcDbArc
 50
269.9999998895993
 51
284.9999799959073
  0
LINE
  5
246
330
1F
100
AcDbEntity
  8
0
100
AcDbLine
 10
61.28539130926902
 20
724.7055962980116
 30
0.0
 11
49.36911192677826
 21
724.7055963209687
 31
0.0
  0
ARC
  5
247
330
1F
100
AcDbEntity
  8
0
100
AcDbCircle
 10
49.36911193641026
 20
729.7055963209687
 30
0.0
 40
5.0
100
AcDbArc
 50
179.9999128556043
 51
269.9999998895993
  0
LINE
  5
248
330
1F
100
AcDbEntity
  8
0
100
AcDbLine
 10
54.26923214964017
 20
849.6053015815528
 30
0.0
 11
60.46880701507325
 21
849.6055555943581
 31
0.0
  0
LINE
  5
249
330
1F
100
AcDbEntity
  8
0
100
AcDbLine
 10
121.5769432499651
 20
810.156712148696
 30
0.0
 11
123.1815198629979
 21
804.1681304796489
 31
0.0
  0
LINE
  5
24A
330
1F
100
AcDbEntity
  8
0
100
AcDbLine
 10
54.26923214964017
 20
734.6057165112898
 30
0.0
 11
60.46880701507325
 21
734.605970524095
 31
0.0
  0
LINE
  5
24B
330
1F
100
AcDbEntity
  8
0
100
AcDbLine
 10
333.1139398568071
 20
866.837865808403
 30
0.0
 11
334.718451732715
 21
860.849076666379
 31
0.0
  0
CIRCLE
  5
24C
330
1F
100
AcDbEntity
  8
0
100
AcDbCircle
 10
252.465437675532
 20
955.3814198558889
 30
0.0
 40
2.499858458555084
  0
CIRCLE
  5
24D
330
1F
100
AcDbEntity
  8
0
100
AcDbCircle
 10
259.9383431529909
 20
900.443461542764
 30
0.0
 40
2.499858458555084
  0
CIRCLE
  5
24E
330
1F
100
AcDbEntity
  8
0
100
AcDbCircle
 10
319.870430404555
 20
869.610773224787
 30
0.0
 40
2.499858458555084
  0
CIRCLE
  5
24F
330
1F
100
AcDbEntity
  8
0
100
AcDbCircle
 10
377.8258972004719
 20
885.1397659538188
 30
0.0
 40
2.499858458555082
  0
CIRCLE
  5
250
330
1F
100
AcDbEntity
  8
0
100
AcDbCircle
 10
397.4673882329439
 20
943.2016583435307
 30
0.0
 40
2.499858458555084
  0
LINE
  5
251
330
1F
100
AcDbEntity
  8
0
100
AcDbLine
 10
54.26923216181103
 20
734.6058435108048
 30
0.0
 11
60.46880700290103
 21
734.6058435245809
 31
0.0
  0
LINE
  5
252
330
1F
100
AcDbEntity
  8
0
100
AcDbLine
 10
54.26915275195415
 20
769.8055474226217
 30
0.0
 11
60.46905115175014
 21
769.8055474226217
 31
0.0
  0
LINE
  5
253
330
1F
100
AcDbEntity
  8
0
100
AcDbLine
 10
60.46918907579811
 20
769.805420415712
 30
0.0
 11
54.26901482790527
 21
769.8056744295318
 31
0.0
  0
LINE
  5
254
330
1F
100
AcDbEntity
  8
0
100
AcDbLine
 10
60.46902840837311
 20
761.6097620202809
 30
0.0
 11
60.4691384355001
 21
742.8021128089267
 31
0.0
  0
LINE
  5
255
330
1F
100
AcDbEntity
  8
0
100
AcDbLine
 10
60.46915128321007
 20
734.6059705189618
 30
0.0
 11
60.46915128321007
 21
734.6059705189618
 31
0.0
  0
ARC
  5
256
330
1F
100
AcDbEntity
  8
0
100
AcDbCircle
 10
60.46915128321007
 20
737.6059705189618
 30
0.0
 40
3.0
100
AcDbArc
 50
270.0
 51
0.0
  0
ARC
  5
257
330
1F
100
AcDbEntity
  8
0
100
AcDbCircle
 10
60.46915128321007
 20
737.6059705189618
 30
0.0
 40
3.0
100
AcDbArc
 50
0.0
 51
60.00014166676832
  0
ARC
  5
258
330
1F
100
AcDbEntity
  8
0
100
AcDbCircle
 10
63.46913843544826
 20
742.8021303593059
 30
0.0
 40
3.0
100
AcDbArc
 50
180.0003351875523
 51
240.0001416667683
  0
LINE
  5
259
330
1F
100
AcDbEntity
  8
0
100
AcDbLine
 10
54.26901075633805
 20
761.6097620202809
 30
0.0
 11
54.26890072921196
 21
742.8021128089267
 31
0.0
  0
LINE
  5
25A
330
1F
100
AcDbEntity
  8
0
100
AcDbLine
 10
54.26888788150291
 20
734.6059705189618
 30
0.0
 11
54.26888788150291
 21
734.6059705189618
 31
0.0
  0
ARC
  5
25B
330
1F
100
AcDbEntity
  8
0
100
AcDbCircle
 10
54.26888788150291
 20
737.6059705189618
 30
0.0
 40
3.0
100
AcDbArc
 50
180.0
 51
270.0
  0
ARC
  5
25C
330
1F
100
AcDbEntity
  8
0
100
AcDbCircle
 10
54.26888788150291
 20
737.6059705189618
 30
0.0
 40
3.0
100
AcDbArc
 50
119.9998583332317
 51
180.0
  0
ARC
  5
25D
330
1F
100
AcDbEntity
  8
0
100
AcDbCircle
 10
51.26890072926426
 20
742.8021303593059
 30
0.0
 40
3.0
100
AcDbArc
 50
299.9998583332317
 51
359.9996648124477
  0
LINE
  5
25E
330
1F
100
AcDbEntity
  8
0
100
AcDbLine
 10
60.46915128321007
 20
769.8059043102458
 30
0.0
 11
60.46915128321007
 21
769.8059043102458
 31
0.0
  0
ARC
  5
25F
330
1F
100
AcDbEntity
  8
0
100
AcDbCircle
 10
60.46915128321007
 20
766.8059043102458
 30
0.0
 40
3.0
100
AcDbArc
 50
0.0
 51
90.0
  0
ARC
  5
260
330
1F
100
AcDbEntity
  8
0
100
AcDbCircle
 10
60.46915128321007
 20
766.8059043102458
 30
0.0
 40
3.0
100
AcDbArc
 50
299.9998583332905
 51
0.0
  0
ARC
  5
261
330
1F
100
AcDbEntity
  8
0
100
AcDbCircle
 10
63.46913843544826
 20
761.6097444699017
 30
0.0
 40
3.0
100
AcDbArc
 50
119.9998583332905
 51
179.9996648124477
  0
LINE
  5
262
330
1F
100
AcDbEntity
  8
0
100
AcDbLine
 10
54.26888788150291
 20
769.8059043102458
 30
0.0
 11
54.26888788150291
 21
769.8059043102458
 31
0.0
  0
ARC
  5
263
330
1F
100
AcDbEntity
  8
0
100
AcDbCircle
 10
54.26888788150291
 20
766.8059043102458
 30
0.0
 40
3.0
100
AcDbArc
 50
90.0
 51
180.0
  0
ARC
  5
264
330
1F
100
AcDbEntity
  8
0
100
AcDbCircle
 10
54.26888788150291
 20
766.8059043102458
 30
0.0
 40
3.0
100
AcDbArc
 50
180.0
 51
240.0001416667095
  0
ARC
  5
265
330
1F
100
AcDbEntity
  8
0
100
AcDbCircle
 10
51.26890072926426
 20
761.6097444699017
 30
0.0
 40
3.0
100
AcDbArc
 50
0.0003351875523004
 51
60.00014166670952
  0
LINE
  5
266
330
1F
100
AcDbEntity
  8
0
100
AcDbLine
 10
54.26923216181103
 20
849.6054285810678
 30
0.0
 11
60.46880700290103
 21
849.605428594843
 31
0.0
  0
LINE
  5
267
330
1F
100
AcDbEntity
  8
0
100
AcDbLine
 10
54.26915275195415
 20
884.8051324928847
 30
0.0
 11
60.46905115175014
 21
884.8051324928847
 31
0.0
  0
LINE
  5
268
330
1F
100
AcDbEntity
  8
0
100
AcDbLine
 10
60.46918907579811
 20
884.805005485975
 30
0.0
 11
54.26901482790527
 21
884.8052594997939
 31
0.0
  0
LINE
  5
269
330
1F
100
AcDbEntity
  8
0
100
AcDbLine
 10
60.46902840837311
 20
876.609347090543
 30
0.0
 11
60.4691384355001
 21
857.8016978791889
 31
0.0
  0
LINE
  5
26A
330
1F
100
AcDbEntity
  8
0
100
AcDbLine
 10
60.46915128321007
 20
849.605555589224
 30
0.0
 11
60.46915128321007
 21
849.605555589224
 31
0.0
  0
ARC
  5
26B
330
1F
100
AcDbEntity
  8
0
100
AcDbCircle
 10
60.46915128321007
 20
852.605555589224
 30
0.0
 40
3.0
100
AcDbArc
 50
270.0
 51
0.0
  0
ARC
  5
26C
330
1F
100
AcDbEntity
  8
0
100
AcDbCircle
 10
60.46915128321007
 20
852.605555589224
 30
0.0
 40
3.0
100
AcDbArc
 50
0.0
 51
60.00014166676832
  0
ARC
  5
26D
330
1F
100
AcDbEntity
  8
0
100
AcDbCircle
 10
63.46913843544826
 20
857.801715429568
 30
0.0
 40
3.0
100
AcDbArc
 50
180.0003351875523
 51
240.0001416667683
  0
LINE
  5
26E
330
1F
100
AcDbEntity
  8
0
100
AcDbLine
 10
54.26901075633805
 20
876.609347090543
 30
0.0
 11
54.26890072921196
 21
857.8016978791889
 31
0.0
  0
LINE
  5
26F
330
1F
100
AcDbEntity
  8
0
100
AcDbLine
 10
54.26888788150291
 20
849.605555589224
 30
0.0
 11
54.26888788150291
 21
849.605555589224
 31
0.0
  0
ARC
  5
270
330
1F
100
AcDbEntity
  8
0
100
AcDbCircle
 10
54.26888788150291
 20
852.605555589224
 30
0.0
 40
3.0
100
AcDbArc
 50
180.0
 51
270.0
  0
ARC
  5
271
330
1F
100
AcDbEntity
  8
0
100
AcDbCircle
 10
54.26888788150291
 20
852.605555589224
 30
0.0
 40
3.0
100
AcDbArc
 50
119.9998583332317
 51
180.0
  0
ARC
  5
272
330
1F
100
AcDbEntity
  8
0
100
AcDbCircle
 10
51.26890072926426
 20
857.801715429568
 30
0.0
 40
3.0
100
AcDbArc
 50
299.9998583332317
 51
359.9996648124477
  0
LINE
  5
273
330
1F
100
AcDbEntity
  8
0
100
AcDbLine
 10
60.46915128321007
 20
884.8054893805079
 30
0.0
 11
60.46915128321007
 21
884.8054893805079
 31
0.0
  0
ARC
  5
274
330
1F
100
AcDbEntity
  8
0
100
AcDbCircle
 10
60.46915128321007
 20
881.8054893805079
 30
0.0
 40
3.0
100
AcDbArc
 50
0.0
 51
90.0
  0
ARC
  5
275
330
1F
100
AcDbEntity
  8
0
100
AcDbCircle
 10
60.46915128321007
 20
881.8054893805079
 30
0.0
 40
3.0
100
AcDbArc
 50
299.9998583332905
 51
0.0
  0
ARC
  5
276
330
1F
100
AcDbEntity
  8
0
100
AcDbCircle
 10
63.46913843544826
 20
876.6093295401629
 30
0.0
 40
3.0
100
AcDbArc
 50
119.9998583332905
 51
179.9996648124477
  0
LINE
  5
277
330
1F
100
AcDbEntity
  8
0
100
AcDbLine
 10
54.26888788150291
 20
884.8054893805079
 30
0.0
 11
54.26888788150291
 21
884.8054893805079
 31
0.0
  0
ARC
  5
278
330
1F
100
AcDbEntity
  8
0
100
AcDbCircle
 10
54.26888788150291
 20
881.8054893805079
 30
0.0
 40
3.0
100
AcDbArc
 50
90.0
 51
180.0
  0
ARC
  5
279
330
1F
100
AcDbEntity
  8
0
100
AcDbCircle
 10
54.26888788150291
 20
881.8054893805079
 30
0.0
 40
3.0
100
AcDbArc
 50
180.0
 51
240.0001416667095
  0
ARC
  5
27A
330
1F
100
AcDbEntity
  8
0
100
AcDbCircle
 10
51.26890072926426
 20
876.6093295401629
 30
0.0
 40
3.0
100
AcDbArc
 50
0.0003351875523004
 51
60.00014166670952
  0
LINE
  5
27B
330
1F
100
AcDbEntity
  8
0
100
AcDbLine
 10
121.576947529622
 20
810.156586037901
 30
0.0
 11
123.181515583341
 21
804.1682565904439
 31
0.0
  0
LINE
  5
27C
330
1F
100
AcDbEntity
  8
0
100
AcDbLine
 10
155.577230062991
 20
819.267016496281
 30
0.0
 11
157.181881846559
 21
813.2783745115498
 31
0.0
  0
LINE
  5
27D
330
1F
100
AcDbEntity
  8
0
100
AcDbLine
 10
157.1817948646762
 20
813.2782084153419
 30
0.0
 11
155.5773170448751
 21
819.267182592489
 31
0.0
  0
LINE
  5
27E
330
1F
100
AcDbEntity
  8
0
100
AcDbLine
 10
149.265355173296
 20
811.1571711282659
 30
0.0
 11
131.09858954538
 21
806.2892870407159
 31
0.0
  0
LINE
  5
27F
330
1F
100
AcDbEntity
  8
0
100
AcDbLine
 10
123.181727356794
 20
804.1679569097678
 30
0.0
 11
123.181727356794
 21
804.1679569097678
 31
0.0
  0
ARC
  5
280
330
1F
100
AcDbEntity
  8
0
100
AcDbCircle
 10
126.0795048356613
 20
804.9444140450751
 30
0.0
 40
3.0
100
AcDbArc
 50
194.9999999999944
 51
284.9999999999944
  0
ARC
  5
281
330
1F
100
AcDbEntity
  8
0
100
AcDbCircle
 10
126.0795048356613
 20
804.9444140450751
 30
0.0
 40
3.0
100
AcDbArc
 50
284.9999999999944
 51
345.0001416667723
  0
ARC
  5
282
330
1F
100
AcDbEntity
  8
0
100
AcDbCircle
 10
131.8750636330383
 20
803.3915141042708
 30
0.0
 40
3.0
100
AcDbArc
 50
105.0003351875594
 51
165.0001416667725
  0
LINE
  5
283
330
1F
100
AcDbEntity
  8
0
100
AcDbLine
 10
147.6606725249781
 20
817.145928301813
 30
0.0
 11
129.4938499428299
 21
812.2782567703507
 31
0.0
  0
LINE
  5
284
330
1F
100
AcDbEntity
  8
0
100
AcDbLine
 10
121.5769811037799
 20
810.1569514592729
 30
0.0
 11
121.5769811037799
 21
810.1569514592729
 31
0.0
  0
ARC
  5
285
330
1F
100
AcDbEntity
  8
0
100
AcDbCircle
 10
124.4747585826472
 20
810.9334085945807
 30
0.0
 40
3.0
100
AcDbArc
 50
104.9999999999945
 51
194.9999999999944
  0
ARC
  5
286
330
1F
100
AcDbEntity
  8
0
100
AcDbCircle
 10
124.4747585826472
 20
810.9334085945807
 30
0.0
 40
3.0
100
AcDbArc
 50
44.99985833323183
 51
104.9999999999945
  0
ARC
  5
287
330
1F
100
AcDbEntity
  8
0
100
AcDbCircle
 10
128.7174097598991
 20
815.176038791541
 30
0.0
 40
3.0
100
AcDbArc
 50
224.9998583332319
 51
284.999664812452
  0
LINE
  5
288
330
1F
100
AcDbEntity
  8
0
100
AcDbLine
 10
157.1822524894601
 20
813.2783701612998
 30
0.0
 11
157.1822524894601
 21
813.2783701612998
 31
0.0
  0
ARC
  5
289
330
1F
100
AcDbEntity
  8
0
100
AcDbCircle
 10
154.2844750105933
 20
812.501913025992
 30
0.0
 40
3.0
100
AcDbArc
 50
284.9999999999944
 51
14.99999999999445
  0
ARC
  5
28A
330
1F
100
AcDbEntity
  8
0
100
AcDbCircle
 10
154.2844750105933
 20
812.501913025992
 30
0.0
 40
3.0
100
AcDbArc
 50
224.9998583333055
 51
284.9999999999944
  0
ARC
  5
28B
330
1F
100
AcDbEntity
  8
0
100
AcDbCircle
 10
150.0418238333409
 20
808.2592828290317
 30
0.0
 40
3.0
100
AcDbArc
 50
44.99985833330553
 51
104.999664812452
  0
LINE
  5
28C
330
1F
100
AcDbEntity
  8
0
100
AcDbLine
 10
155.5775062364469
 20
819.2673647108049
 30
0.0
 11
155.5775062364469
 21
819.2673647108049
 31
0.0
  0
ARC
  5
28D
330
1F
100
AcDbEntity
  8
0
100
AcDbCircle
 10
152.6797287575791
 20
818.4909075754967
 30
0.0
 40
3.0
100
AcDbArc
 50
14.99999999999445
 51
104.9999999999945
  0
ARC
  5
28E
330
1F
100
AcDbEntity
  8
0
100
AcDbCircle
 10
152.6797287575791
 20
818.4909075754967
 30
0.0
 40
3.0
100
AcDbArc
 50
104.9999999999945
 51
165.0001416667185
  0
ARC
  5
28F
330
1F
100
AcDbEntity
  8
0
100
AcDbCircle
 10
146.8841699602031
 20
820.0438075163011
 30
0.0
 40
3.0
100
AcDbArc
 50
285.0003351875594
 51
345.0001416667183
  0
LINE
  5
290
330
1F
100
AcDbEntity
  8
0
100
AcDbLine
 10
333.113911767899
 20
866.8376359611198
 30
0.0
 11
334.7184798216199
 21
860.8493065136627
 31
0.0
  0
LINE
  5
291
330
1F
100
AcDbEntity
  8
0
100
AcDbLine
 10
367.1141943012699
 20
875.9480664194998
 30
0.0
 11
368.7188460848379
 21
869.9594244347677
 31
0.0
  0
LINE
  5
292
330
1F
100
AcDbEntity
  8
0
100
AcDbLine
 10
368.7187591029542
 20
869.9592583385597
 30
0.0
 11
367.1142812831531
 21
875.9482325157069
 31
0.0
  0
LINE
  5
293
330
1F
100
AcDbEntity
  8
0
100
AcDbLine
 10
360.802319411574
 20
867.8382210514837
 30
0.0
 11
342.635553783658
 21
862.9703369639346
 31
0.0
  0
LINE
  5
294
330
1F
100
AcDbEntity
  8
0
100
AcDbLine
 10
334.718691595071
 20
860.8490068329857
 30
0.0
 11
334.718691595071
 21
860.8490068329857
 31
0.0
  0
ARC
  5
295
330
1F
100
AcDbEntity
  8
0
100
AcDbCircle
 10
337.6164690739402
 20
861.6254639682938
 30
0.0
 40
3.0
100
AcDbArc
 50
194.9999999999944
 51
284.9999999999944
  0
ARC
  5
296
330
1F
100
AcDbEntity
  8
0
100
AcDbCircle
 10
337.6164690739402
 20
861.6254639682938
 30
0.0
 40
3.0
100
AcDbArc
 50
284.9999999999944
 51
345.0001416667723
  0
ARC
  5
297
330
1F
100
AcDbEntity
  8
0
100
AcDbCircle
 10
343.4120278713162
 20
860.0725640274886
 30
0.0
 40
3.0
100
AcDbArc
 50
105.0003351875594
 51
165.0001416667723
  0
LINE
  5
298
330
1F
100
AcDbEntity
  8
0
100
AcDbLine
 10
359.197636763256
 20
873.8269782250309
 30
0.0
 11
341.0308141811079
 21
868.959306693569
 31
0.0
  0
LINE
  5
299
330
1F
100
AcDbEntity
  8
0
100
AcDbLine
 10
333.1139453420583
 20
866.8380013824908
 30
0.0
 11
333.1139453420583
 21
866.8380013824908
 31
0.0
  0
ARC
  5
29A
330
1F
100
AcDbEntity
  8
0
100
AcDbCircle
 10
336.011722820926
 20
867.614458517799
 30
0.0
 40
3.0
100
AcDbArc
 50
104.9999999999945
 51
194.9999999999944
  0
ARC
  5
29B
330
1F
100
AcDbEntity
  8
0
100
AcDbCircle
 10
336.011722820926
 20
867.614458517799
 30
0.0
 40
3.0
100
AcDbArc
 50
44.99985833322531
 51
104.9999999999945
  0
ARC
  5
29C
330
1F
100
AcDbEntity
  8
0
100
AcDbCircle
 10
340.254373998177
 20
871.8570887147589
 30
0.0
 40
3.0
100
AcDbArc
 50
224.9998583332253
 51
284.9996648124514
  0
LINE
  5
29D
330
1F
100
AcDbEntity
  8
0
100
AcDbLine
 10
368.719216727739
 20
869.9594200845177
 30
0.0
 11
368.719216727739
 21
869.9594200845177
 31
0.0
  0
ARC
  5
29E
330
1F
100
AcDbEntity
  8
0
100
AcDbCircle
 10
365.8214392488721
 20
869.1829629492099
 30
0.0
 40
3.0
100
AcDbArc
 50
284.9999999999944
 51
14.99999999999445
  0
ARC
  5
29F
330
1F
100
AcDbEntity
  8
0
100
AcDbCircle
 10
365.8214392488721
 20
869.1829629492099
 30
0.0
 40
3.0
100
AcDbArc
 50
224.999858333299
 51
284.9999999999944
  0
ARC
  5
2A0
330
1F
100
AcDbEntity
  8
0
100
AcDbCircle
 10
361.5787880716202
 20
864.94033275225
 30
0.0
 40
3.0
100
AcDbArc
 50
44.999858333299
 51
104.9996648124515
  0
LINE
  5
2A1
330
1F
100
AcDbEntity
  8
0
100
AcDbLine
 10
367.1144704747253
 20
875.9484146340228
 30
0.0
 11
367.1144704747253
 21
875.9484146340228
 31
0.0
  0
ARC
  5
2A2
330
1F
100
AcDbEntity
  8
0
100
AcDbCircle
 10
364.2166929958571
 20
875.171957498716
 30
0.0
 40
3.0
100
AcDbArc
 50
14.99999999999445
 51
104.9999999999945
  0
ARC
  5
2A3
330
1F
100
AcDbEntity
  8
0
100
AcDbCircle
 10
364.2166929958571
 20
875.171957498716
 30
0.0
 40
3.0
100
AcDbArc
 50
104.9999999999945
 51
165.0001416667183
  0
ARC
  5
2A4
330
1F
100
AcDbEntity
  8
0
100
AcDbCircle
 10
358.421134198481
 20
876.7248574395198
 30
0.0
 40
3.0
100
AcDbArc
 50
285.0003351875594
 51
345.0001416667183
  0
TEXT
  5
2A5
330
1F
100
AcDbEntity
  8
opis
100
AcDbText
 10
191.885055265509
 20
845.188302908155
 30
0.0
 40
14.0
  1
m:1.4301
 41
0.7
  7
14mm
100
AcDbText
  0
TEXT
  5
2A6
330
1F
100
AcDbEntity
  8
opis
100
AcDbText
 10
201.8944605897509
 20
867.4390600093006
 30
0.0
 40
14.0
  1
#6
 41
0.7
  7
14mm
100
AcDbText
  0
TEXT
  5
2A7
330
1F
100
AcDbEntity
  8
opis
100
AcDbText
 10
92.19424209442286
 20
877.2688482074241
 30
0.0
 40
14.0
  1
n:pos.02
 41
0.7
  7
14mm
100
AcDbText
  0
TEXT
  5
2A8
330
1F
100
AcDbEntity
  8
opis
100
AcDbText
 10
103.7279760358451
 20
854.6566592959521
 30
0.0
 40
14.0
  1
szt:188
 41
0.7
  7
14mm
100
AcDbText
  0
CIRCLE
  5
2A9
330
1F
100
AcDbEntity
  8
0
100
AcDbCircle
 10
177.7853830691161
 20
343.198641435567
 30
0.0
 40
2.25
  0
CIRCLE
  5
2AA
330
1F
100
AcDbEntity
  8
0
100
AcDbCircle
 10
256.317571213629
 20
343.1986414355661
 30
0.0
 40
2.25
  0
CIRCLE
  5
2AB
330
1F
100
AcDbEntity
  8
0
100
AcDbCircle
 10
359.2659177288569
 20
307.663991631744
 30
0.0
 40
2.25
  0
CIRCLE
  5
2AC
330
1F
100
AcDbEntity
  8
0
100
AcDbCircle
 10
398.1567906941173
 20
268.7731186664828
 30
0.0
 40
2.25
  0
ARC
  5
2AD
330
1F
100
AcDbEntity
  8
0
100
AcDbCircle
 10
402.3994313812373
 20
268.7731186664828
 30
0.0
 40
5.999999999999942
100
AcDbArc
 50
315.000000000003
 51
45.0
  0
LINE
  5
2AE
330
1F
100
AcDbEntity
  8
0
100
AcDbLine
 10
406.6420720683559
 20
264.5304779793637
 30
0.0
 11
342.817237466204
 21
200.70564337721
 31
0.0
  0
LINE
  5
2AF
330
1F
100
AcDbEntity
  8
0
100
AcDbLine
 10
286.7390473270952
 20
253.5849578008447
 30
0.0
 11
286.6492571135432
 21
253.6747480143958
 31
0.0
  0
LINE
  5
2B0
330
1F
100
AcDbEntity
  8
0
100
AcDbLine
 10
286.6492571135432
 20
253.6747480143958
 30
0.0
 11
286.5222745757701
 21
253.6747480143958
 31
0.0
  0
LINE
  5
2B1
330
1F
100
AcDbEntity
  8
0
100
AcDbLine
 10
139.9406698516341
 20
325.936694724981
 30
0.0
 11
147.9406698516341
 21
325.9366947249819
 31
0.0
  0
LINE
  5
2B2
330
1F
100
AcDbEntity
  8
0
100
AcDbLine
 10
139.9406698516341
 20
253.6747480143958
 30
0.0
 11
139.8136873138601
 21
253.6747480143958
 31
0.0
  0
LINE
  5
2B3
330
1F
100
AcDbEntity
  8
0
100
AcDbLine
 10
139.8136873138601
 20
253.6747480143958
 30
0.0
 11
139.7238971003089
 21
253.5849578008447
 31
0.0
  0
LINE
  5
2B4
330
1F
100
AcDbEntity
  8
0
100
AcDbLine
 10
157.2765659157521
 20
80.40573686434482
 30
0.0
 11
157.3954437546049
 21
80.28685902549205
 31
0.0
  0
LINE
  5
2B5
330
1F
100
AcDbEntity
  8
0
100
AcDbLine
 10
157.3954437546049
 20
80.28685902549205
 30
0.0
 11
157.56292266435
 21
80.27220651950984
 31
0.0
  0
LINE
  5
2B6
330
1F
100
AcDbEntity
  8
0
100
AcDbLine
 10
195.3744205039961
 20
77.46603902637798
 30
0.0
 11
188.5970202809312
 21
0.0
 31
0.0
  0
CIRCLE
  5
2B7
330
1F
100
AcDbEntity
  8
0
100
AcDbCircle
 10
272.1620288370673
 20
344.3141776657831
 30
0.0
 40
5.735000000000001
  0
LINE
  5
2B8
330
1F
100
AcDbEntity
  8
0
100
AcDbLine
 10
165.5901946488589
 20
352.198641435567
 30
0.0
 11
147.9406698516341
 21
334.1986414355661
 31
0.0
  0
LINE
  5
2B9
330
1F
100
AcDbEntity
  8
0
100
AcDbLine
 10
147.9406698516341
 20
325.9366947249819
 30
0.0
 11
147.9406698516341
 21
334.1986414355661
 31
0.0
  0
LINE
  5
2BA
330
1F
100
AcDbEntity
  8
0
100
AcDbLine
 10
278.652216890684
 20
352.1986414355661
 30
0.0
 11
286.1080610133981
 21
334.1986414355661
 31
0.0
  0
SPLINE
  5
2BB
330
1F
100
AcDbEntity
  8
0
100
AcDbSpline
210
0.0
220
0.0
230
1.0
 70
     8
 71
     3
 72
     8
 73
     4
 74
     0
 42
0.000000001
 43
0.0000000001
 40
-1.570796326794898
 40
-1.570796326794898
 40
-1.570796326794898
 40
-1.570796326794898
 40
-0.0000000000000108
 40
-0.0000000000000108
 40
-0.0000000000000108
 40
-0.0000000000000108
 10
286.1080610133972
 20
334.1986414355661
 30
0.0
 10
286.3249427274923
 20
333.4446591987048
 30
0.0
 10
286.5222745757701
 20
332.6906769618427
 30
0.0
 10
286.5222745757701
 20
331.9366947249819
 30
0.0
  0
SPLINE
  5
2BC
330
1F
100
AcDbEntity
  8
0
100
AcDbSpline
210
0.0
220
0.0
230
1.0
 70
     8
 71
     3
 72
     8
 73
     4
 74
     0
 42
0.000000001
 43
0.0000000001
 40
0.0000000000000116
 40
0.0000000000000116
 40
0.0000000000000116
 40
0.0000000000000116
 40
1.570796326794891
 40
1.570796326794891
 40
1.570796326794891
 40
1.570796326794891
 10
342.0786005550112
 20
308.9245110287588
 30
0.0
 10
342.6117465075899
 20
309.4576569813389
 30
0.0
 10
343.2844271482309
 20
309.8512682458559
 30
0.0
 10
343.9709316315621
 20
310.231055667683
 30
0.0
  0
LINE
  5
2BD
330
1F
100
AcDbEntity
  8
0
100
AcDbLine
 10
343.9709316315611
 20
310.2310556676816
 30
0.0
 11
361.9709316315621
 21
317.6868997903966
 31
0.0
  0
LINE
  5
2BE
330
1F
100
AcDbEntity
  8
0
100
AcDbLine
 10
165.5901946488589
 20
352.198641435567
 30
0.0
 11
278.652216890684
 21
352.1986414355661
 31
0.0
  0
LINE
  5
2BF
330
1F
100
AcDbEntity
  8
0
100
AcDbLine
 10
361.9709316315621
 20
317.6868997903966
 30
0.0
 11
406.6420720683559
 21
273.0157593536028
 31
0.0
  0
CIRCLE
  5
2C0
330
1F
100
AcDbEntity
  8
0
100
AcDbCircle
 10
75.12592435197212
 20
301.0590918662697
 30
0.0
 40
3.5
  0
ARC
  5
2C1
330
1F
100
AcDbEntity
  8
0
100
AcDbCircle
 10
241.8999046160311
 20
148.5647338192289
 30
0.0
 40
3.000000000000347
100
AcDbArc
 50
89.51827658815193
 51
134.5182765881463
  0
LINE
  5
2C2
330
1F
100
AcDbEntity
  8
0
100
AcDbLine
 10
241.9251272977313
 20
151.5646277867427
 30
0.0
 11
277.9238549079023
 21
151.2619556063401
 31
0.0
  0
ARC
  5
2C3
330
1F
100
AcDbEntity
  8
0
100
AcDbCircle
 10
277.8986322262012
 20
148.2620616388249
 30
0.0
 40
3.000000000000165
100
AcDbArc
 50
44.51827658814046
 51
89.51827658812584
  0
LINE
  5
2C4
330
1F
100
AcDbEntity
  8
0
100
AcDbLine
 10
280.0377127227412
 20
150.3654718768248
 30
0.0
 11
300.3706783567391
 21
129.6876937436068
 31
0.0
  0
ARC
  5
2C5
330
1F
100
AcDbEntity
  8
0
100
AcDbCircle
 10
294.6664636993
 20
124.078599775607
 30
0.0
 40
8.000000000000027
100
AcDbArc
 50
314.5182765881394
 51
44.51827658813697
  0
LINE
  5
2C6
330
1F
100
AcDbEntity
  8
0
100
AcDbLine
 10
300.2755576672989
 20
118.3743851181666
 30
0.0
 11
272.4675112122809
 21
91.03005202416898
 31
0.0
  0
ARC
  5
2C7
330
1F
100
AcDbEntity
  8
0
100
AcDbCircle
 10
270.364100974281
 20
93.1691325207089
 30
0.0
 40
2.999999999999932
100
AcDbArc
 50
269.5182765881605
 51
314.5182765881397
  0
LINE
  5
2C8
330
1F
100
AcDbEntity
  8
0
100
AcDbLine
 10
270.3388782925822
 20
90.16923855319465
 30
0.0
 11
234.3401506824302
 21
90.47191073359772
 31
0.0
  0
ARC
  5
2C9
330
1F
100
AcDbEntity
  8
0
100
AcDbCircle
 10
234.3653733641113
 20
93.47180470111198
 30
0.0
 40
2.999999999999753
100
AcDbArc
 50
224.5182765881402
 51
269.5182765884992
  0
LINE
  5
2CA
330
1F
100
AcDbEntity
  8
0
100
AcDbLine
 10
232.2262928675723
 20
91.36839446311205
 30
0.0
 11
211.893327233573
 21
112.046172596331
 31
0.0
  0
ARC
  5
2CB
330
1F
100
AcDbEntity
  8
0
100
AcDbCircle
 10
217.597541891012
 20
117.6552665643298
 30
0.0
 40
7.999999999999992
100
AcDbArc
 50
134.5182765881393
 51
224.5182765881416
  0
LINE
  5
2CC
330
1F
100
AcDbEntity
  8
0
100
AcDbLine
 10
211.9884479230132
 20
123.3594812217698
 30
0.0
 11
239.7964943780312
 21
150.7038143157679
 31
0.0
  0
CIRCLE
  5
2CD
330
1F
100
AcDbEntity
  8
0
100
AcDbCircle
 10
148.6306030821829
 20
227.273117973778
 30
0.0
 40
3.0
  0
CIRCLE
  5
2CE
330
1F
100
AcDbEntity
  8
0
100
AcDbCircle
 10
272.16202883703
 20
243.5592117842957
 30
0.0
 40
3.0
  0
CIRCLE
  5
2CF
330
1F
100
AcDbEntity
  8
0
100
AcDbCircle
 10
331.7586522470251
 20
182.9519310490009
 30
0.0
 40
3.0
  0
LINE
  5
2D0
330
1F
100
AcDbEntity
  8
0
100
AcDbLine
 10
286.7390473270952
 20
253.5849578008447
 30
0.0
 11
342.078600555009
 21
308.9245110287588
 31
0.0
  0
LINE
  5
2D1
330
1F
100
AcDbEntity
  8
0
100
AcDbLine
 10
286.5222745757701
 20
331.936694724981
 30
0.0
 11
286.5222745757701
 21
253.6747480143958
 31
0.0
  0
LINE
  5
2D2
330
1F
100
AcDbEntity
  8
0
100
AcDbLine
 10
139.9406698516341
 20
253.6747480143958
 30
0.0
 11
139.9406698516341
 21
325.936694724981
 31
0.0
  0
LINE
  5
2D3
330
1F
100
AcDbEntity
  8
0
100
AcDbLine
 10
78.02038284171522
 20
315.2884720594388
 30
0.0
 11
139.7238971003089
 21
253.5849578008447
 31
0.0
  0
LINE
  5
2D4
330
1F
100
AcDbEntity
  8
0
100
AcDbLine
 10
60.10407640085714
 20
177.1640128168669
 30
0.0
 11
0.0
 21
237.2680892177236
 31
0.0
  0
LINE
  5
2D5
330
1F
100
AcDbEntity
  8
0
100
AcDbLine
 10
60.3111831820429
 20
177.3711195980541
 30
0.0
 11
60.10407640085714
 21
177.1640128168669
 31
0.0
  0
LINE
  5
2D6
330
1F
100
AcDbEntity
  8
0
100
AcDbLine
 10
61.91062103977993
 20
175.771681740317
 30
0.0
 11
60.3111831820429
 21
177.3711195980541
 31
0.0
  0
LINE
  5
2D7
330
1F
100
AcDbEntity
  8
0
100
AcDbLine
 10
60.3111831820429
 20
174.17224388258
 30
0.0
 11
61.91062103977993
 21
175.771681740317
 31
0.0
  0
LINE
  5
2D8
330
1F
100
AcDbEntity
  8
0
100
AcDbLine
 10
60.10407640085714
 20
174.3793506637658
 30
0.0
 11
60.3111831820429
 21
174.17224388258
 31
0.0
  0
LINE
  5
2D9
330
1F
100
AcDbEntity
  8
0
100
AcDbLine
 10
0.0
 20
114.2752742629086
 30
0.0
 11
60.10407640085714
 21
174.3793506637658
 31
0.0
  0
LINE
  5
2DA
330
1F
100
AcDbEntity
  8
0
100
AcDbLine
 10
157.2765659157521
 20
80.40573686434482
 30
0.0
 11
102.6441194690242
 21
25.77329041761686
 31
0.0
  0
LINE
  5
2DB
330
1F
100
AcDbEntity
  8
0
100
AcDbLine
 10
150.8291003126592
 20
3.304264842177872
 30
0.0
 11
157.56292266435
 21
80.27220651950984
 31
0.0
  0
LINE
  5
2DC
330
1F
100
AcDbEntity
  8
0
100
AcDbLine
 10
78.02038284171522
 20
315.2884720594388
 30
0.0
 11
0.0
 21
237.2680892177236
 31
0.0
  0
LINE
  5
2DD
330
1F
100
AcDbEntity
  8
0
100
AcDbLine
 10
0.0
 20
114.2752742629086
 30
0.0
 11
48.08326112068698
 21
66.19201314222482
 31
0.0
  0
LINE
  5
2DE
330
1F
100
AcDbEntity
  8
0
100
AcDbLine
 10
55.15432893255092
 20
73.26308095408967
 30
0.0
 11
48.08326112068698
 21
66.19201314222482
 31
0.0
  0
LINE
  5
2DF
330
1F
100
AcDbEntity
  8
0
100
AcDbLine
 10
55.15432893255092
 20
73.26308095408967
 30
0.0
 11
102.6441194690242
 21
25.77329041761686
 31
0.0
  0
LINE
  5
2E0
330
1F
100
AcDbEntity
  8
0
100
AcDbLine
 10
150.8291003126592
 20
3.304264842177872
 30
0.0
 11
188.5970202809312
 21
0.0
 31
0.0
  0
LINE
  5
2E1
330
1F
100
AcDbEntity
  8
0
100
AcDbLine
 10
195.3744205039961
 20
77.46603902637798
 30
0.0
 11
196.3706152020882
 21
77.37888328362988
 31
0.0
  0
LINE
  5
2E2
330
1F
100
AcDbEntity
  8
0
100
AcDbLine
 10
196.3706152020882
 20
77.37888328362988
 30
0.0
 11
196.239881587966
 21
75.88459123649181
 31
0.0
  0
SPLINE
  5
2E3
330
1F
100
AcDbEntity
  8
0
100
AcDbSpline
210
0.0
220
0.0
230
1.0
 70
    24
 71
     3
 72
     8
 73
     4
 74
     0
 42
0.000000001
 43
0.0000000001
 40
0.0000000000000007
 40
0.0000000000000007
 40
0.0000000000000007
 40
0.0000000000000007
 40
1.570796326794877
 40
1.570796326794877
 40
1.570796326794877
 40
1.570796326794877
 10
342.817237466204
 20
200.70564337721
 30
0.0
 10
342.755496034416
 20
199.7010929038397
 30
0.0
 10
342.6937546026279
 20
198.6965424304699
 30
0.0
 10
342.6320131708399
 20
197.6919919571001
 30
0.0
  0
LINE
  5
2E4
330
1F
100
AcDbEntity
  8
0
100
AcDbLine
 10
307.276674111512
 20
66.17013065640185
 30
0.0
 11
196.239881587966
 21
75.88459123649181
 31
0.0
  0
LINE
  5
2E5
330
1F
100
AcDbEntity
  8
0
100
AcDbLine
 10
342.6320131708399
 20
101.5254697157288
 30
0.0
 11
307.276674111512
 21
66.17013065640185
 31
0.0
  0
LINE
  5
2E6
330
1F
100
AcDbEntity
  8
0
100
AcDbLine
 10
342.6320131708399
 20
197.6919919571001
 30
0.0
 11
342.6320131708399
 21
101.5254697157288
 31
0.0
  0
LINE
  5
2E7
330
1F
100
AcDbEntity
  8
Linia środkowa zgięcia
 48
26.75147247314453
100
AcDbLine
 10
195.2322718098139
 20
75.8412720171059
 30
0.0
 11
157.464351841541
 21
79.14553685928377
 31
0.0
  0
LINE
  5
2E8
330
1F
100
AcDbEntity
  8
Linia środkowa zgięcia
 48
24.12370872497559
100
AcDbLine
 10
342.9641059215051
 20
309.6384435199998
 30
0.0
 11
397.3570717652492
 21
255.245477676257
 31
0.0
  0
LINE
  5
2E9
330
1F
100
AcDbEntity
  8
Linia środkowa zgięcia
 48
26.05330467224121
100
AcDbLine
 10
147.9406698516323
 20
333.067668080274
 30
0.0
 11
286.4009542322119
 21
333.067668080274
 31
0.0
  0
LINE
  5
2EA
330
1F
100
AcDbEntity
  8
Linia środkowa zgięcia
 48
25.88310050964356
100
AcDbLine
 10
61.11090211091187
 20
176.5714006691846
 30
0.0
 11
138.92417817144
 21
254.3846767297127
 31
0.0
  0
LINE
  5
2EB
330
1F
100
AcDbEntity
  8
Linia środkowa zgięcia
 48
24.47536277770996
100
AcDbLine
 10
287.5387662559629
 20
254.3846767297127
 30
0.0
 11
342.7246253185222
 21
199.1988176671548
 31
0.0
  0
LINE
  5
2EC
330
1F
100
AcDbEntity
  8
Linia środkowa zgięcia
 48
25.37732887268067
100
AcDbLine
 10
156.4768469868832
 20
79.60601793547676
 30
0.0
 11
61.11090211091187
 21
174.9719628114481
 31
0.0
  0
LINE
  5
2ED
330
1F
100
AcDbEntity
  8
Linia środkowa zgięcia
 48
25.85760688781738
100
AcDbLine
 10
139.9406698516341
 20
254.8057213696889
 30
0.0
 11
286.5222745757701
 21
254.8057213696889
 31
0.0
  0
LWPOLYLINE
  5
2EE
330
1F
100
AcDbEntity
  8
0
100
AcDbPolyline
 90
        8
 70
     1
 43
0.0
 10
100.0755031541021
 20
623.5149172942088
 10
290.0755031541021
 20
623.5149172942088
 42
-0.414213562373095
 10
305.0755031541021
 20
608.5149172942088
 10
305.0755031541021
 20
478.5149172942088
 42
-0.414213562373095
 10
290.0755031541021
 20
463.5149172942088
 10
100.0755031541021
 20
463.5149172942088
 42
-0.414213562373095
 10
85.07550315410208
 20
478.5149172942088
 10
85.07550315410208
 20
608.5149172942088
 42
-0.414213562373095
  0
TEXT
  5
2F4
330
1F
100
AcDbEntity
  8
opis
100
AcDbText
 10
168.5523092943413
 20
206.5607571379778
 30
0.0
 40
14.0
  1
#1
 41
0.7
  7
14mm
100
AcDbText
  0
TEXT
  5
2F5
330
1F
100
AcDbEntity
  8
opis
100
AcDbText
 10
169.5395597767379
 20
178.1938168338897
 30
0.0
 40
14.0
  1
szt:12
 41
0.7
  7
14mm
100
AcDbText
  0
TEXT
  5
2F7
330
1F
100
AcDbEntity
  8
opis
100
AcDbText
 10
160.713175130682
 20
233.2816120178577
 30
0.0
 40
14.0
  1
n:P21_35_p2
 41
0.7
  7
14mm
100
AcDbText
  0
TEXT
  5
2F8
330
1F
100
AcDbEntity
  8
opis
100
AcDbText
 10
147.2871382372041
 20
121.788586905388
 30
0.0
 40
14.0
  1
g:7
 41
0.7
  7
14mm
100
AcDbText
  0
LINE
  5
30B
330
1F
100
AcDbEntity
  8
Grawer
100
AcDbLine
 10
98.07550315410208
 20
608.5149172942088
 30
0.0
 11
102.0755031541021
 21
608.5149172942088
 31
0.0
  0
LINE
  5
30C
330
1F
100
AcDbEntity
  8
Grawer
100
AcDbLine
 10
100.0755031541021
 20
476.5149172942088
 30
0.0
 11
100.0755031541021
 21
480.5149172942088
 31
0.0
  0
LINE
  5
30D
330
1F
100
AcDbEntity
  8
Grawer
100
AcDbLine
 10
290.0755031541021
 20
476.5149172942088
 30
0.0
 11
290.0755031541021
 21
480.5149172942088
 31
0.0
  0
LINE
  5
30E
330
1F
100
AcDbEntity
  8
Grawer
100
AcDbLine
 10
98.07550315410208
 20
478.5149172942088
 30
0.0
 11
102.0755031541021
 21
478.5149172942088
 31
0.0
  0
LINE
  5
318
330
1F
100
AcDbEntity
  8
Grawer
100
AcDbLine
 10
288.0755031541021
 20
608.5149172942088
 30
0.0
 11
292.0755031541021
 21
608.5149172942088
 31
0.0
  0
LINE
  5
31B
330
1F
100
AcDbEntity
  8
Grawer
100
AcDbLine
 10
288.0755031541021
 20
478.5149172942088
 30
0.0
 11
292.0755031541021
 21
478.5149172942088
 31
0.0
  0
LINE
  5
31E
330
1F
100
AcDbEntity
  8
Grawer
100
AcDbLine
 10
100.0755031541021
 20
606.5149172942088
 30
0.0
 11
100.0755031541021
 21
610.5149172942088
 31
0.0
  0
LINE
  5
321
330
1F
100
AcDbEntity
  8
Grawer
100
AcDbLine
 10
290.0755031541021
 20
606.5149172942088
 30
0.0
 11
290.0755031541021
 21
610.5149172942088
 31
0.0
  0
CIRCLE
  5
328
330
1F
100
AcDbEntity
  8
Grawer
100
AcDbCircle
 10
195.0755031541021
 20
543.5149172942088
 30
0.0
 40
25.0
  0
TEXT
  5
358
330
1F
100
AcDbEntity
  8
opis
100
AcDbText
 10
100.3121295930034
 20
582.3810174980076
 30
0.0
 40
14.0
  1
n:pos.13
 41
0.7
  7
14mm
100
AcDbText
  0
TEXT
  5
359
330
1F
100
AcDbEntity
  8
opis
100
AcDbText
 10
101.3692153383184
 20
557.5229095624595
 30
0.0
 40
14.0
  1
#15
 41
0.7
  7
14mm
100
AcDbText
  0
TEXT
  5
35A
330
1F
100
AcDbEntity
  8
opis
100
AcDbText
 10
102.3564658207154
 20
529.1559692583714
 30
0.0
 40
14.0
  1
szt:47
 41
0.7
  7
14mm
100
AcDbText
  0
TEXT
  5
35B
330
1F
100
AcDbEntity
  8
opis
100
AcDbText
 10
104.0406202333955
 20
499.4071716178587
 30
0.0
 40
14.0
  1
m:S235
 41
0.7
  7
14mm
100
AcDbText
  0
TEXT
  5
38E
330
1F
100
AcDbEntity
  8
opis
100
AcDbText
 10
132.7725413606856
 20
151.3238891584006
 30
0.0
 40
14.0
  1
m:alu 1050 
 41
0.7
  7
14mm
100
AcDbText
  0
ENDSEC
  0
SECTION
  2
OBJECTS
  0
DICTIONARY
  5
C
330
0
100
AcDbDictionary
281
     1
  3
ACAD_COLOR
350
73
  3
ACAD_DETAILVIEWSTYLE
350
122
  3
ACAD_GROUP
350
D
  3
ACAD_IMAGE_VARS
350
DC
  3
ACAD_LAYOUT
350
1A
  3
ACAD_MATERIAL
350
72
  3
ACAD_MLEADERSTYLE
350
B5
  3
ACAD_MLINESTYLE
350
17
  3
ACAD_PLOTSETTINGS
350
19
  3
ACAD_PLOTSTYLENAME
350
E
  3
ACAD_SCALELIST
350
B6
  3
ACAD_SECTIONVIEWSTYLE
350
123
  3
ACAD_TABLESTYLE
350
86
  3
ACAD_VISUALSTYLE
350
99
  3
ACDB_RECOMPOSE_DATA
350
391
  3
AcDbVariableDictionary
350
66
  3
APPDATA
350
E1
  0
SUN
  5
ED
330
94
100
AcDbSun
 90
        1
290
     0
 63
     7
421
 16777215
 40
1.0
291
     1
 91
  2455826
 92
 54000000
292
     0
 70
     2
 71
   256
280
     1
  0
DICTIONARY
  5
221
330
2
100
AcDbDictionary
280
     1
281
     1
  3
ACAD_LAYERSTATES
360
222
  3
ACLYDICTIONARY
360
309
  0
DICTIONARY
  5
73
102
{ACAD_REACTORS
330
C
102
}
330
C
100
AcDbDictionary
281
     1
  0
DICTIONARY
  5
122
102
{ACAD_REACTORS
330
C
102
}
330
C
100
AcDbDictionary
281
     1
  0
DICTIONARY
  5
D
102
{ACAD_REACTORS
330
C
102
}
330
C
100
AcDbDictionary
281
     1
  0
RASTERVARIABLES
  5
DC
102
{ACAD_REACTORS
330
C
102
}
330
C
100
AcDbRasterVariables
 90
        0
 70
     1
 71
     1
 72
     5
  0
DICTIONARY
  5
1A
102
{ACAD_REACTORS
330
C
102
}
330
C
100
AcDbDictionary
281
     1
  3
Model
350
22
  3
Sheet1
350
59
  3
Sheet2
350
5E
  0
DICTIONARY
  5
72
102
{ACAD_REACTORS
330
C
102
}
330
C
100
AcDbDictionary
281
     1
  3
ByBlock
350
E2
  3
ByLayer
350
96
  3
Global
350
98
  0
DICTIONARY
  5
B5
102
{ACAD_REACTORS
330
C
102
}
330
C
100
AcDbDictionary
281
     1
  3
Standard
350
124
  0
DICTIONARY
  5
17
102
{ACAD_REACTORS
330
C
102
}
330
C
100
AcDbDictionary
281
     1
  3
Standard
350
18
  0
DICTIONARY
  5
19
102
{ACAD_REACTORS
330
C
102
}
330
C
100
AcDbDictionary
281
     1
  0
ACDBDICTIONARYWDFLT
  5
E
102
{ACAD_REACTORS
330
C
102
}
330
C
100
AcDbDictionary
281
     1
  3
Normal
350
F
100
AcDbDictionaryWithDefault
340
F
  0
DICTIONARY
  5
B6
102
{ACAD_REACTORS
330
C
102
}
330
C
100
AcDbDictionary
281
     1
  3
A0
350
B7
  3
A1
350
B8
  3
A2
350
B9
  3
A3
350
BA
  3
A4
350
BB
  3
A5
350
BC
  3
A6
350
BD
  3
A7
350
BE
  3
A8
350
BF
  3
A9
350
C0
  3
B0
350
C1
  3
B1
350
C2
  3
B2
350
C3
  3
B3
350
C4
  3
B4
350
C5
  3
B5
350
C6
  3
B6
350
C7
  3
B7
350
C8
  3
B8
350
C9
  3
B9
350
CA
  3
C0
350
CB
  3
C1
350
CC
  3
C2
350
CD
  3
C3
350
CE
  3
C4
350
CF
  3
C5
350
D0
  3
C6
350
D1
  3
C7
350
D2
  3
C8
350
D3
  3
C9
350
D4
  3
D0
350
D5
  3
D1
350
D6
  3
D2
350
D7
  0
DICTIONARY
  5
123
102
{ACAD_REACTORS
330
C
102
}
330
C
100
AcDbDictionary
281
     1
  0
DICTIONARY
  5
86
102
{ACAD_REACTORS
330
C
102
}
330
C
100
AcDbDictionary
281
     1
  3
Standard
350
87
  0
DICTIONARY
  5
99
102
{ACAD_REACTORS
330
C
102
}
330
C
100
AcDbDictionary
281
     1
  3
2dWireframe
350
9F
  3
3D Hidden
350
A1
  3
3dWireframe
350
A0
  3
Basic
350
9E
  3
Brighten
350
A5
  3
ColorChange
350
A9
  3
Conceptual
350
A2
  3
Dim
350
A4
  3
EdgeColorOff
350
E7
  3
Facepattern
350
A8
  3
Flat
350
9A
  3
FlatWithEdges
350
9B
  3
Gouraud
350
9C
  3
GouraudWithEdges
350
9D
  3
Hidden
350
E4
  3
JitterOff
350
E5
  3
Linepattern
350
A7
  3
OverhangOff
350
E6
  3
Realistic
350
A3
  3
Shaded
350
EC
  3
Shaded with edges
350
EB
  3
Shades of Gray
350
E8
  3
Sketchy
350
E9
  3
Thicken
350
A6
  3
Wireframe
350
E3
  3
X-Ray
350
EA
  0
XRECORD
  5
391
102
{ACAD_REACTORS
330
C
102
}
330
C
100
AcDbXrecord
280
     1
 90
        1
330
87
  0
DICTIONARY
  5
66
102
{ACAD_REACTORS
330
C
102
}
330
C
100
AcDbDictionary
281
     1
  3
CANNOSCALE
350
D8
  3
CMLEADERSTYLE
350
305
  3
CTABLESTYLE
350
89
  3
DIMASSOC
350
67
  3
HIDETEXT
350
6B
  3
LIGHTSINBLOCKS
350
DF
  3
XCLIPFRAME
350
E0
  0
DICTIONARY
  5
E1
102
{ACAD_REACTORS
330
C
102
}
330
C
100
AcDbDictionary
281
     1
  0
DICTIONARY
  5
222
102
{ACAD_REACTORS
330
221
102
}
330
221
100
AcDbDictionary
281
     1
  0
DICTIONARY
  5
309
102
{ACAD_REACTORS
330
221
102
}
330
221
100
AcDbDictionary
281
     1
1001
ACAD
1000
<All
  0
LAYOUT
  5
22
102
{ACAD_REACTORS
330
1A
102
}
330
1A
100
AcDbPlotSettings
  1

  2
none_device
  4
ANSI_A_(8.50_x_11.00_Inches)
  6

 40
6.35
 41
19.05
 42
6.35
 43
19.05
 44
215.9
 45
279.4
 46
11.11250000000003
 47
0.0000000000000142
 48
0.0
 49
0.0
140
0.0
141
0.0
142
1.0
143
1.263157894736842
 70
 11444
 72
     0
 73
     1
 74
     1
  7
monochrome.ctb
 75
     0
 76
     0
 77
     2
 78
   300
147
0.7916666666666665
148
-702.8076765758875
149
-496.2830551296954
100
AcDbLayout
  1
Model
 70
     1
 71
     0
 10
0.0
 20
0.0
 11
12.0
 21
9.0
 12
0.0
 22
0.0
 32
0.0
 14
0.0
 24
0.0
 34
0.0
 15
425.6989697953841
 25
1011.62518718501
 35
0.0
146
0.0
 13
0.0
 23
0.0
 33
0.0
 16
1.0
 26
0.0
 36
0.0
 17
0.0
 27
1.0
 37
0.0
 76
     0
330
1F
331
94
  0
LAYOUT
  5
59
102
{ACAD_REACTORS
330
1A
102
}
330
1A
100
AcDbPlotSettings
  1

  2
None
  4

  6

 40
0.0
 41
0.0
 42
0.0
 43
0.0
 44
0.0
 45
0.0
 46
0.0
 47
0.0
 48
0.0
 49
0.0
140
0.0
141
0.0
142
1.0
143
1.0
 70
   688
 72
     0
 73
     0
 74
     5
  7

 75
    16
 76
     0
 77
     2
 78
   300
147
1.0
148
0.0
149
0.0
100
AcDbLayout
  1
Sheet1
 70
     1
 71
     1
 10
0.0
 20
0.0
 11
12.0
 21
9.0
 12
0.0
 22
0.0
 32
0.0
 14
0.0
 24
0.0
 34
0.0
 15
0.0
 25
0.0
 35
0.0
146
0.0
 13
0.0
 23
0.0
 33
0.0
 16
1.0
 26
0.0
 36
0.0
 17
0.0
 27
1.0
 37
0.0
 76
     0
330
58
  0
LAYOUT
  5
5E
102
{ACAD_REACTORS
330
1A
102
}
330
1A
100
AcDbPlotSettings
  1

  2
None
  4

  6

 40
0.0
 41
0.0
 42
0.0
 43
0.0
 44
0.0
 45
0.0
 46
0.0
 47
0.0
 48
0.0
 49
0.0
140
0.0
141
0.0
142
1.0
143
1.0
 70
   688
 72
     0
 73
     0
 74
     5
  7

 75
    16
 76
     0
 77
     2
 78
   300
147
1.0
148
0.0
149
0.0
100
AcDbLayout
  1
Sheet2
 70
     1
 71
     2
 10
0.0
 20
0.0
 11
12.0
 21
9.0
 12
0.0
 22
0.0
 32
0.0
 14
0.0
 24
0.0
 34
0.0
 15
0.0
 25
0.0
 35
0.0
146
0.0
 13
0.0
 23
0.0
 33
0.0
 16
1.0
 26
0.0
 36
0.0
 17
0.0
 27
1.0
 37
0.0
 76
     0
330
5D
  0
MATERIAL
  5
E2
102
{ACAD_REACTORS
330
72
102
}
330
72
100
AcDbMaterial
  1
ByBlock
 72
     1
 94
      127
  0
MATERIAL
  5
96
102
{ACAD_REACTORS
330
72
102
}
330
72
100
AcDbMaterial
  1
ByLayer
 72
     1
 94
       63
  0
MATERIAL
  5
98
102
{ACAD_REACTORS
330
72
102
}
330
72
100
AcDbMaterial
  1
Global
 72
     1
 94
       63
  0
MLEADERSTYLE
  5
124
102
{ACAD_REACTORS
330
B5
102
}
330
B5
100
AcDbMLeaderStyle
170
     2
171
     1
172
     0
 90
        2
 40
0.0
 41
0.0
173
     1
 91
-1056964608
340
14
 92
       -2
290
     1
 42
0.09
291
     1
 43
0.36
  3
Standard
341
0
 44
0.18
300

342
11
174
     1
178
     6
175
     1
176
     0
 93
-1056964608
 45
0.18
292
     0
297
     0
 46
0.18
343
0
 94
-1056964608
 47
1.0
 49
1.0
140
1.0
293
     1
141
0.0
294
     1
177
     0
142
1.0
295
     0
296
     0
143
0.125
1001
ACAD_MLEADERVER
1070
     2
  0
MLINESTYLE
  5
18
102
{ACAD_REACTORS
330
17
102
}
330
17
100
AcDbMlineStyle
  2
STANDARD
 70
     0
  3

 62
   256
 51
90.0
 52
90.0
 71
     2
 49
0.5
 62
   256
  6
BYLAYER
 49
-0.5
 62
   256
  6
BYLAYER
  0
ACDBPLACEHOLDER
  5
F
102
{ACAD_REACTORS
330
E
102
}
330
E
  0
SCALE
  5
B7
102
{ACAD_REACTORS
330
B6
102
}
330
B6
100
AcDbScale
 70
     0
300
1:1
140
1.0
141
1.0
290
     1
  0
SCALE
  5
B8
102
{ACAD_REACTORS
330
B6
102
}
330
B6
100
AcDbScale
 70
     0
300
1:2
140
1.0
141
2.0
290
     0
  0
SCALE
  5
B9
102
{ACAD_REACTORS
330
B6
102
}
330
B6
100
AcDbScale
 70
     0
300
1:4
140
1.0
141
4.0
290
     0
  0
SCALE
  5
BA
102
{ACAD_REACTORS
330
B6
102
}
330
B6
100
AcDbScale
 70
     0
300
1:5
140
1.0
141
5.0
290
     0
  0
SCALE
  5
BB
102
{ACAD_REACTORS
330
B6
102
}
330
B6
100
AcDbScale
 70
     0
300
1:8
140
1.0
141
8.0
290
     0
  0
SCALE
  5
BC
102
{ACAD_REACTORS
330
B6
102
}
330
B6
100
AcDbScale
 70
     0
300
1:10
140
1.0
141
10.0
290
     0
  0
SCALE
  5
BD
102
{ACAD_REACTORS
330
B6
102
}
330
B6
100
AcDbScale
 70
     0
300
1:16
140
1.0
141
16.0
290
     0
  0
SCALE
  5
BE
102
{ACAD_REACTORS
330
B6
102
}
330
B6
100
AcDbScale
 70
     0
300
1:20
140
1.0
141
20.0
290
     0
  0
SCALE
  5
BF
102
{ACAD_REACTORS
330
B6
102
}
330
B6
100
AcDbScale
 70
     0
300
1:30
140
1.0
141
30.0
290
     0
  0
SCALE
  5
C0
102
{ACAD_REACTORS
330
B6
102
}
330
B6
100
AcDbScale
 70
     0
300
1:40
140
1.0
141
40.0
290
     0
  0
SCALE
  5
C1
102
{ACAD_REACTORS
330
B6
102
}
330
B6
100
AcDbScale
 70
     0
300
1:50
140
1.0
141
50.0
290
     0
  0
SCALE
  5
C2
102
{ACAD_REACTORS
330
B6
102
}
330
B6
100
AcDbScale
 70
     0
300
1:100
140
1.0
141
100.0
290
     0
  0
SCALE
  5
C3
102
{ACAD_REACTORS
330
B6
102
}
330
B6
100
AcDbScale
 70
     0
300
2:1
140
2.0
141
1.0
290
     0
  0
SCALE
  5
C4
102
{ACAD_REACTORS
330
B6
102
}
330
B6
100
AcDbScale
 70
     0
300
4:1
140
4.0
141
1.0
290
     0
  0
SCALE
  5
C5
102
{ACAD_REACTORS
330
B6
102
}
330
B6
100
AcDbScale
 70
     0
300
8:1
140
8.0
141
1.0
290
     0
  0
SCALE
  5
C6
102
{ACAD_REACTORS
330
B6
102
}
330
B6
100
AcDbScale
 70
     0
300
10:1
140
10.0
141
1.0
290
     0
  0
SCALE
  5
C7
102
{ACAD_REACTORS
330
B6
102
}
330
B6
100
AcDbScale
 70
     0
300
100:1
140
100.0
141
1.0
290
     0
  0
SCALE
  5
C8
102
{ACAD_REACTORS
330
B6
102
}
330
B6
100
AcDbScale
 70
     0
300
1/128" = 1'-0"
140
0.0078125
141
12.0
290
     0
  0
SCALE
  5
C9
102
{ACAD_REACTORS
330
B6
102
}
330
B6
100
AcDbScale
 70
     0
300
1/64" = 1'-0"
140
0.015625
141
12.0
290
     0
  0
SCALE
  5
CA
102
{ACAD_REACTORS
330
B6
102
}
330
B6
100
AcDbScale
 70
     0
300
1/32" = 1'-0"
140
0.03125
141
12.0
290
     0
  0
SCALE
  5
CB
102
{ACAD_REACTORS
330
B6
102
}
330
B6
100
AcDbScale
 70
     0
300
1/16" = 1'-0"
140
0.0625
141
12.0
290
     0
  0
SCALE
  5
CC
102
{ACAD_REACTORS
330
B6
102
}
330
B6
100
AcDbScale
 70
     0
300
3/32" = 1'-0"
140
0.09375
141
12.0
290
     0
  0
SCALE
  5
CD
102
{ACAD_REACTORS
330
B6
102
}
330
B6
100
AcDbScale
 70
     0
300
1/8" = 1'-0"
140
0.125
141
12.0
290
     0
  0
SCALE
  5
CE
102
{ACAD_REACTORS
330
B6
102
}
330
B6
100
AcDbScale
 70
     0
300
3/16" = 1'-0"
140
0.1875
141
12.0
290
     0
  0
SCALE
  5
CF
102
{ACAD_REACTORS
330
B6
102
}
330
B6
100
AcDbScale
 70
     0
300
1/4" = 1'-0"
140
0.25
141
12.0
290
     0
  0
SCALE
  5
D0
102
{ACAD_REACTORS
330
B6
102
}
330
B6
100
AcDbScale
 70
     0
300
3/8" = 1'-0"
140
0.375
141
12.0
290
     0
  0
SCALE
  5
D1
102
{ACAD_REACTORS
330
B6
102
}
330
B6
100
AcDbScale
 70
     0
300
1/2" = 1'-0"
140
0.5
141
12.0
290
     0
  0
SCALE
  5
D2
102
{ACAD_REACTORS
330
B6
102
}
330
B6
100
AcDbScale
 70
     0
300
3/4" = 1'-0"
140
0.75
141
12.0
290
     0
  0
SCALE
  5
D3
102
{ACAD_REACTORS
330
B6
102
}
330
B6
100
AcDbScale
 70
     0
300
1" = 1'-0"
140
1.0
141
12.0
290
     0
  0
SCALE
  5
D4
102
{ACAD_REACTORS
330
B6
102
}
330
B6
100
AcDbScale
 70
     0
300
1-1/2" = 1'-0"
140
1.5
141
12.0
290
     0
  0
SCALE
  5
D5
102
{ACAD_REACTORS
330
B6
102
}
330
B6
100
AcDbScale
 70
     0
300
3" = 1'-0"
140
3.0
141
12.0
290
     0
  0
SCALE
  5
D6
102
{ACAD_REACTORS
330
B6
102
}
330
B6
100
AcDbScale
 70
     0
300
6" = 1'-0"
140
6.0
141
12.0
290
     0
  0
SCALE
  5
D7
102
{ACAD_REACTORS
330
B6
102
}
330
B6
100
AcDbScale
 70
     0
300
1'-0" = 1'-0"
140
12.0
141
12.0
290
     0
  0
TABLESTYLE
  5
87
102
{ACAD_REACTORS
330
86
102
}
102
{ACAD_XDICTIONARY
360
38F
102
}
330
86
100
AcDbTableStyle
  3
Standard
 70
     0
 71
     0
 40
0.06
 41
0.06
280
     0
281
     0
  7
Standard
140
0.18
170
     2
 62
     0
 63
   257
283
     0
 90
      512
 91
        0
  1

274
    -2
284
     1
 64
     0
275
    -2
285
     1
 65
     0
276
    -2
286
     1
 66
     0
277
    -2
287
     1
 67
     0
278
    -2
288
     1
 68
     0
279
    -2
289
     1
 69
     0
  7
Standard
140
0.25
170
     5
 62
     0
 63
   257
283
     0
 90
      512
 91
        0
  1

274
    -2
284
     1
 64
     0
275
    -2
285
     1
 65
     0
276
    -2
286
     1
 66
     0
277
    -2
287
     1
 67
     0
278
    -2
288
     1
 68
     0
279
    -2
289
     1
 69
     0
  7
Standard
140
0.18
170
     5
 62
     0
 63
   257
283
     0
 90
      512
 91
        0
  1

274
    -2
284
     1
 64
     0
275
    -2
285
     1
 65
     0
276
    -2
286
     1
 66
     0
277
    -2
287
     1
 67
     0
278
    -2
288
     1
 68
     0
279
    -2
289
     1
 69
     0
  0
VISUALSTYLE
  5
9F
102
{ACAD_REACTORS
330
99
102
}
330
99
100
AcDbVisualStyle
  2
2dWireframe
 70
     4
 71
     0
 72
     2
 73
     1
 90
        0
 40
-0.6
 41
-30.0
 62
     5
 63
     7
421
 16777215
 74
     1
 91
        4
 64
     7
 65
   257
 75
     1
175
     1
 42
1.0
 92
        0
 66
   257
 43
1.0
 76
     1
 77
     6
 78
     2
 67
     7
 79
     5
170
     0
171
     0
290
     0
174
     0
 93
        1
 44
0.0
173
     0
291
     0
 45
0.0
  0
VISUALSTYLE
  5
A1
102
{ACAD_REACTORS
330
99
102
}
330
99
100
AcDbVisualStyle
  2
3D Hidden
 70
     6
 71
     1
 72
     2
 73
     2
 90
        0
 40
-0.6
 41
-30.0
 62
     5
 63
     7
421
 16777215
 74
     2
 91
        2
 64
     7
 65
   257
 75
     2
175
     1
 42
40.0
 92
        0
 66
   257
 43
1.0
 76
     1
 77
     6
 78
     2
 67
     7
 79
     3
170
     0
171
     0
290
     0
174
     0
 93
        1
 44
0.0
173
     0
291
     0
 45
0.0
  0
VISUALSTYLE
  5
A0
102
{ACAD_REACTORS
330
99
102
}
330
99
100
AcDbVisualStyle
  2
3dWireframe
 70
     5
 71
     0
 72
     2
 73
     1
 90
        0
 40
-0.6
 41
-30.0
 62
     5
 63
     7
421
 16777215
 74
     1
 91
        4
 64
     7
 65
   257
 75
     1
175
     1
 42
1.0
 92
        0
 66
   257
 43
1.0
 76
     1
 77
     6
 78
     2
 67
     7
 79
     5
170
     0
171
     0
290
     0
174
     0
 93
        1
 44
0.0
173
     0
291
     0
 45
0.0
  0
VISUALSTYLE
  5
9E
102
{ACAD_REACTORS
330
99
102
}
330
99
100
AcDbVisualStyle
  2
Basic
 70
     7
 71
     1
 72
     0
 73
     1
 90
        0
 40
-0.6
 41
-30.0
 62
     5
 63
     7
421
 16777215
 74
     0
 91
        4
 64
     7
 65
   257
 75
     1
175
     1
 42
1.0
 92
        8
 66
     7
 43
1.0
 76
     1
 77
     6
 78
     2
 67
     7
 79
     5
170
     0
171
     0
290
     0
174
     0
 93
        1
 44
0.0
173
     0
291
     1
 45
0.0
  0
VISUALSTYLE
  5
A5
102
{ACAD_REACTORS
330
99
102
}
330
99
100
AcDbVisualStyle
  2
Brighten
 70
    12
 71
     2
 72
     2
 73
     1
 90
        0
 40
-0.6
 41
-30.0
 62
     5
 63
     7
421
 16777215
 74
     1
 91
        4
 64
     7
 65
   257
 75
     1
175
     1
 42
1.0
 92
        8
 66
     7
 43
1.0
 76
     1
 77
     6
 78
     2
 67
     7
 79
     5
170
     0
171
     0
290
     0
174
     0
 93
        1
 44
50.0
173
     0
291
     1
 45
0.0
  0
VISUALSTYLE
  5
A9
102
{ACAD_REACTORS
330
99
102
}
330
99
100
AcDbVisualStyle
  2
ColorChange
 70
    16
 71
     2
 72
     2
 73
     3
 90
        0
 40
-0.6
 41
-30.0
 62
     5
 63
     8
421
  8421504
 74
     1
 91
        4
 64
     7
 65
   257
 75
     1
175
     1
 42
1.0
 92
        8
 66
     8
424
  8421504
 43
1.0
 76
     1
 77
     6
 78
     2
 67
     7
 79
     5
170
     0
171
     0
290
     0
174
     0
 93
        1
 44
0.0
173
     0
291
     1
 45
0.0
  0
VISUALSTYLE
  5
A2
102
{ACAD_REACTORS
330
99
102
}
330
99
100
AcDbVisualStyle
  2
Conceptual
 70
     9
 71
     3
 72
     2
 73
     1
 90
        0
 40
-0.6
 41
-30.0
 62
     5
 63
     7
421
 16777215
 74
     2
 91
        2
 64
     7
 65
   257
 75
     1
175
     1
 42
40.0
 92
        8
 66
     7
 43
1.0
 76
     1
 77
     6
 78
     2
 67
     7
 79
     3
170
     0
171
     0
290
     0
174
     0
 93
        1
 44
0.0
173
     0
291
     0
 45
0.0
  0
VISUALSTYLE
  5
A4
102
{ACAD_REACTORS
330
99
102
}
330
99
100
AcDbVisualStyle
  2
Dim
 70
    11
 71
     2
 72
     2
 73
     1
 90
        0
 40
-0.6
 41
-30.0
 62
     5
 63
     7
421
 16777215
 74
     1
 91
        4
 64
     7
 65
   257
 75
     1
175
     1
 42
1.0
 92
        8
 66
     7
 43
1.0
 76
     1
 77
     6
 78
     2
 67
     7
 79
     5
170
     0
171
     0
290
     0
174
     0
 93
        1
 44
-50.0
173
     0
291
     1
 45
0.0
  0
VISUALSTYLE
  5
E7
102
{ACAD_REACTORS
330
99
102
}
330
99
100
AcDbVisualStyle
  2
EdgeColorOff
 70
    22
 71
     2
 72
     2
 73
     0
 90
        0
 40
0.6
 41
30.0
 62
     5
 63
     7
421
 16777215
 74
     1
 91
        4
 64
     7
 65
   257
 75
     1
175
     1
 42
1.0
 92
        8
 66
     7
 43
1.0
 76
     1
 77
     6
 78
     2
 67
     7
 79
     5
170
     0
171
     0
290
     0
174
     0
 93
        1
 44
0.0
173
     0
291
     1
 45
0.0
  0
VISUALSTYLE
  5
A8
102
{ACAD_REACTORS
330
99
102
}
330
99
100
AcDbVisualStyle
  2
Facepattern
 70
    15
 71
     2
 72
     2
 73
     1
 90
        0
 40
-0.6
 41
-30.0
 62
     5
 63
     7
421
 16777215
 74
     1
 91
        4
 64
     7
 65
   257
 75
     1
175
     1
 42
1.0
 92
        8
 66
     7
 43
1.0
 76
     1
 77
     6
 78
     2
 67
     7
 79
     5
170
     0
171
     0
290
     0
174
     0
 93
        1
 44
0.0
173
     0
291
     1
 45
0.0
  0
VISUALSTYLE
  5
9A
102
{ACAD_REACTORS
330
99
102
}
330
99
100
AcDbVisualStyle
  2
Flat
 70
     0
 71
     2
 72
     1
 73
     1
 90
        2
 40
-0.6
 41
30.0
 62
     5
 63
     7
421
 16777215
 74
     0
 91
        4
 64
     7
 65
   257
 75
     1
175
     1
 42
1.0
 92
        8
 66
     7
 43
1.0
 76
     1
 77
     6
 78
     2
 67
     7
 79
     5
170
     0
171
     0
290
     0
174
     0
 93
        1
 44
0.0
173
     0
291
     1
 45
0.0
  0
VISUALSTYLE
  5
9B
102
{ACAD_REACTORS
330
99
102
}
330
99
100
AcDbVisualStyle
  2
FlatWithEdges
 70
     1
 71
     2
 72
     1
 73
     1
 90
        2
 40
-0.6
 41
30.0
 62
     5
 63
     7
421
 16777215
 74
     1
 91
        4
 64
     7
 65
   257
 75
     1
175
     1
 42
1.0
 92
        0
 66
   257
 43
1.0
 76
     1
 77
     6
 78
     2
 67
     7
 79
     5
170
     0
171
     0
290
     0
174
     0
 93
        1
 44
0.0
173
     0
291
     1
 45
0.0
  0
VISUALSTYLE
  5
9C
102
{ACAD_REACTORS
330
99
102
}
330
99
100
AcDbVisualStyle
  2
Gouraud
 70
     2
 71
     2
 72
     2
 73
     1
 90
        2
 40
-0.6
 41
30.0
 62
     5
 63
     7
421
 16777215
 74
     0
 91
        4
 64
     7
 65
   257
 75
     1
175
     1
 42
1.0
 92
        0
 66
     7
 43
1.0
 76
     1
 77
     6
 78
     2
 67
     7
 79
     5
170
     0
171
     0
290
     0
174
     0
 93
        1
 44
0.0
173
     0
291
     1
 45
0.0
  0
VISUALSTYLE
  5
9D
102
{ACAD_REACTORS
330
99
102
}
330
99
100
AcDbVisualStyle
  2
GouraudWithEdges
 70
     3
 71
     2
 72
     2
 73
     1
 90
        2
 40
-0.6
 41
30.0
 62
     5
 63
     7
421
 16777215
 74
     1
 91
        4
 64
     7
 65
   257
 75
     1
175
     1
 42
1.0
 92
        0
 66
   257
 43
1.0
 76
     1
 77
     6
 78
     2
 67
     7
 79
     5
170
     0
171
     0
290
     0
174
     0
 93
        1
 44
0.0
173
     0
291
     1
 45
0.0
  0
VISUALSTYLE
  5
E4
102
{ACAD_REACTORS
330
99
102
}
330
99
100
AcDbVisualStyle
  2
Hidden
 70
     6
 71
     1
 72
     2
 73
     2
 90
        0
 40
0.6
 41
30.0
 62
     5
 63
     7
421
 16777215
 74
     2
 91
        2
 64
     7
 65
   257
 75
     2
175
     1
 42
40.0
 92
        0
 66
   257
 43
1.0
 76
     1
 77
     6
 78
     2
 67
     7
 79
     3
170
     0
171
     0
290
     0
174
     0
 93
        1
 44
0.0
173
     0
291
     0
 45
0.0
  0
VISUALSTYLE
  5
E5
102
{ACAD_REACTORS
330
99
102
}
330
99
100
AcDbVisualStyle
  2
JitterOff
 70
    20
 71
     2
 72
     2
 73
     0
 90
        0
 40
0.6
 41
30.0
 62
     5
 63
     7
421
 16777215
 74
     1
 91
        4
 64
     7
 65
   257
 75
     1
175
     1
 42
1.0
 92
       10
 66
     7
 43
1.0
 76
     1
 77
     6
 78
     2
 67
     7
 79
     5
170
     0
171
     0
290
     0
174
     0
 93
        1
 44
0.0
173
     0
291
     1
 45
0.0
  0
VISUALSTYLE
  5
A7
102
{ACAD_REACTORS
330
99
102
}
330
99
100
AcDbVisualStyle
  2
Linepattern
 70
    14
 71
     2
 72
     2
 73
     1
 90
        0
 40
-0.6
 41
-30.0
 62
     5
 63
     7
421
 16777215
 74
     1
 91
        4
 64
     7
 65
   257
 75
     7
175
     7
 42
1.0
 92
        8
 66
     7
 43
1.0
 76
     1
 77
     6
 78
     2
 67
     7
 79
     5
170
     0
171
     0
290
     0
174
     0
 93
        1
 44
0.0
173
     0
291
     1
 45
0.0
  0
VISUALSTYLE
  5
E6
102
{ACAD_REACTORS
330
99
102
}
330
99
100
AcDbVisualStyle
  2
OverhangOff
 70
    21
 71
     2
 72
     2
 73
     0
 90
        0
 40
0.6
 41
30.0
 62
     5
 63
     7
421
 16777215
 74
     1
 91
        4
 64
     7
 65
   257
 75
     1
175
     1
 42
1.0
 92
        9
 66
     7
 43
1.0
 76
     1
 77
     6
 78
     2
 67
     7
 79
     5
170
     0
171
     0
290
     0
174
     0
 93
        1
 44
0.0
173
     0
291
     1
 45
0.0
  0
VISUALSTYLE
  5
A3
102
{ACAD_REACTORS
330
99
102
}
330
99
100
AcDbVisualStyle
  2
Realistic
 70
     8
 71
     2
 72
     2
 73
     1
 90
        0
 40
-0.6
 41
-30.0
 62
     5
 63
     7
421
 16777215
 74
     1
 91
        0
 64
     7
 65
   257
 75
     1
175
     1
 42
1.0
 92
        8
 66
     8
424
  7895160
 43
1.0
 76
     1
 77
     6
 78
     2
 67
     7
 79
     5
170
     0
171
     0
290
     0
174
     0
 93
       13
 44
0.0
173
     0
291
     0
 45
0.0
  0
VISUALSTYLE
  5
EC
102
{ACAD_REACTORS
330
99
102
}
330
99
100
AcDbVisualStyle
  2
Shaded
 70
    27
 71
     2
 72
     2
 73
     1
 90
        2
 40
0.6
 41
30.0
 62
     5
 63
     7
421
 16777215
 74
     0
 91
        4
 64
     7
 65
   257
 75
     1
175
     1
 42
1.0
 92
        8
 66
   257
 43
1.0
 76
     1
 77
     6
 78
     2
 67
     8
425
  7895160
 79
     3
170
     0
171
     0
290
     0
174
     0
 93
        5
 44
0.0
173
     0
291
     0
 45
0.0
  0
VISUALSTYLE
  5
EB
102
{ACAD_REACTORS
330
99
102
}
330
99
100
AcDbVisualStyle
  2
Shaded with edges
 70
    26
 71
     2
 72
     2
 73
     1
 90
        2
 40
0.6
 41
30.0
 62
     5
 63
     7
421
 16777215
 74
     1
 91
       10
 64
     7
 65
   257
 75
     2
175
     1
 42
1.0
 92
        8
 66
   257
 43
1.0
 76
     1
 77
     6
 78
     2
 67
     7
 79
     3
170
     0
171
     0
290
     0
174
     0
 93
        5
 44
0.0
173
     0
291
     0
 45
0.0
  0
VISUALSTYLE
  5
E8
102
{ACAD_REACTORS
330
99
102
}
330
99
100
AcDbVisualStyle
  2
Shades of Gray
 70
    23
 71
     2
 72
     2
 73
     3
 90
        0
 40
0.6
 41
30.0
 62
     5
 63
     7
421
 16777215
 74
     2
 91
        2
 64
     7
 65
     7
 75
     1
175
     1
 42
40.0
 92
        8
 66
     7
 43
1.0
 76
     1
 77
     6
 78
     2
 67
     7
 79
     3
170
     0
171
     0
290
     0
174
     0
 93
        1
 44
0.0
173
     0
291
     0
 45
0.0
  0
VISUALSTYLE
  5
E9
102
{ACAD_REACTORS
330
99
102
}
330
99
100
AcDbVisualStyle
  2
Sketchy
 70
    24
 71
     1
 72
     2
 73
     2
 90
        0
 40
0.6
 41
30.0
 62
     5
 63
     7
421
 16777215
 74
     2
 91
        2
 64
     7
 65
     7
 75
     1
175
     1
 42
40.0
 92
       11
 66
     7
 43
1.0
 76
     1
 77
     6
 78
     2
 67
     7
 79
     6
170
     0
171
     0
290
     0
174
     0
 93
        1
 44
0.0
173
     0
291
     0
 45
0.0
  0
VISUALSTYLE
  5
A6
102
{ACAD_REACTORS
330
99
102
}
330
99
100
AcDbVisualStyle
  2
Thicken
 70
    13
 71
     2
 72
     2
 73
     1
 90
        0
 40
-0.6
 41
-30.0
 62
     5
 63
     7
421
 16777215
 74
     1
 91
        4
 64
     7
 65
   257
 75
     1
175
     1
 42
1.0
 92
       12
 66
     7
 43
1.0
 76
     1
 77
     6
 78
     2
 67
     7
 79
     5
170
     0
171
     0
290
     0
174
     0
 93
        1
 44
0.0
173
     0
291
     1
 45
0.0
  0
VISUALSTYLE
  5
E3
102
{ACAD_REACTORS
330
99
102
}
330
99
100
AcDbVisualStyle
  2
Wireframe
 70
     5
 71
     0
 72
     2
 73
     0
 90
        0
 40
0.6
 41
30.0
 62
     5
 63
     7
421
 16777215
 74
     1
 91
        4
 64
     7
 65
   257
 75
     1
175
     1
 42
1.0
 92
        0
 66
   257
 43
1.0
 76
     1
 77
     6
 78
     2
 67
     7
 79
     3
170
     0
171
     0
290
     0
174
     0
 93
        1
 44
0.0
173
     0
291
     0
 45
0.0
  0
VISUALSTYLE
  5
EA
102
{ACAD_REACTORS
330
99
102
}
330
99
100
AcDbVisualStyle
  2
X-Ray
 70
    25
 71
     2
 72
     2
 73
     1
 90
        1
 40
0.5
 41
30.0
 62
     5
 63
     7
421
 16777215
 74
     1
 91
        0
 64
     7
 65
   257
 75
     1
175
     1
 42
1.0
 92
        8
 66
     7
 43
1.0
 76
     1
 77
     6
 78
     2
 67
     7
 79
     3
170
     0
171
     0
290
     0
174
     0
 93
       13
 44
0.0
173
     0
291
     0
 45
0.0
  0
DICTIONARYVAR
  5
D8
102
{ACAD_REACTORS
330
66
102
}
330
66
100
DictionaryVariables
280
     0
  1
1:1
  0
DICTIONARYVAR
  5
305
102
{ACAD_REACTORS
330
66
102
}
330
66
100
DictionaryVariables
280
     0
  1
Standard
  0
DICTIONARYVAR
  5
89
102
{ACAD_REACTORS
330
66
102
}
330
66
100
DictionaryVariables
280
     0
  1
Standard
  0
DICTIONARYVAR
  5
67
102
{ACAD_REACTORS
330
66
102
}
330
66
100
DictionaryVariables
280
     0
  1
2
  0
DICTIONARYVAR
  5
6B
102
{ACAD_REACTORS
330
66
102
}
330
66
100
DictionaryVariables
280
     0
  1
1
  0
DICTIONARYVAR
  5
DF
102
{ACAD_REACTORS
330
66
102
}
330
66
100
DictionaryVariables
280
     0
  1
0
  0
DICTIONARYVAR
  5
E0
102
{ACAD_REACTORS
330
66
102
}
330
66
100
DictionaryVariables
280
     0
  1
0
  0
DICTIONARY
  5
38F
330
87
100
AcDbDictionary
280
     1
281
     1
  3
ACAD_ROUNDTRIP_2008_TABLESTYLE_CELLSTYLEMAP
360
390
  0
CELLSTYLEMAP
  5
390
102
{ACAD_REACTORS
330
38F
102
}
330
38F
100
AcDbCellStyleMap
 90
        3
300
CELLSTYLE
  1
TABLEFORMAT_BEGIN
 90
        5
170
     1
 91
        0
 92
    32768
 62
   257
 93
        1
300
CONTENTFORMAT
  1
CONTENTFORMAT_BEGIN
 90
        0
 91
        0
 92
      512
 93
        0
300

 40
0.0
140
1.0
 94
        5
 62
     0
340
11
144
0.25
309
CONTENTFORMAT_END
171
     0
 94
        6
 95
        1
302
GRIDFORMAT
  1
GRIDFORMAT_BEGIN
 90
        0
 91
        1
 62
     0
 92
       -2
340
0
 93
        0
 40
0.045
309
GRIDFORMAT_END
 95
        2
302
GRIDFORMAT
  1
GRIDFORMAT_BEGIN
 90
        0
 91
        1
 62
     0
 92
       -2
340
0
 93
        0
 40
0.045
309
GRIDFORMAT_END
 95
        4
302
GRIDFORMAT
  1
GRIDFORMAT_BEGIN
 90
        0
 91
        1
 62
     0
 92
       -2
340
0
 93
        0
 40
0.045
309
GRIDFORMAT_END
 95
        8
302
GRIDFORMAT
  1
GRIDFORMAT_BEGIN
 90
        0
 91
        1
 62
     0
 92
       -2
340
0
 93
        0
 40
0.045
309
GRIDFORMAT_END
 95
       16
302
GRIDFORMAT
  1
GRIDFORMAT_BEGIN
 90
        0
 91
        1
 62
     0
 92
       -2
340
0
 93
        0
 40
0.045
309
GRIDFORMAT_END
 95
       32
302
GRIDFORMAT
  1
GRIDFORMAT_BEGIN
 90
        0
 91
        1
 62
     0
 92
       -2
340
0
 93
        0
 40
0.045
309
GRIDFORMAT_END
309
TABLEFORMAT_END
  1
CELLSTYLE_BEGIN
 90
        1
 91
        1
300
_TITLE
309
CELLSTYLE_END
300
CELLSTYLE
  1
TABLEFORMAT_BEGIN
 90
        5
170
     1
 91
        0
 92
        0
 62
   257
 93
        1
300
CONTENTFORMAT
  1
CONTENTFORMAT_BEGIN
 90
        0
 91
        0
 92
      512
 93
        0
300

 40
0.0
140
1.0
 94
        5
 62
     0
340
11
144
0.18
309
CONTENTFORMAT_END
171
     0
 94
        6
 95
        1
302
GRIDFORMAT
  1
GRIDFORMAT_BEGIN
 90
        0
 91
        1
 62
     0
 92
       -2
340
0
 93
        0
 40
0.045
309
GRIDFORMAT_END
 95
        2
302
GRIDFORMAT
  1
GRIDFORMAT_BEGIN
 90
        0
 91
        1
 62
     0
 92
       -2
340
0
 93
        0
 40
0.045
309
GRIDFORMAT_END
 95
        4
302
GRIDFORMAT
  1
GRIDFORMAT_BEGIN
 90
        0
 91
        1
 62
     0
 92
       -2
340
0
 93
        0
 40
0.045
309
GRIDFORMAT_END
 95
        8
302
GRIDFORMAT
  1
GRIDFORMAT_BEGIN
 90
        0
 91
        1
 62
     0
 92
       -2
340
0
 93
        0
 40
0.045
309
GRIDFORMAT_END
 95
       16
302
GRIDFORMAT
  1
GRIDFORMAT_BEGIN
 90
        0
 91
        1
 62
     0
 92
       -2
340
0
 93
        0
 40
0.045
309
GRIDFORMAT_END
 95
       32
302
GRIDFORMAT
  1
GRIDFORMAT_BEGIN
 90
        0
 91
        1
 62
     0
 92
       -2
340
0
 93
        0
 40
0.045
309
GRIDFORMAT_END
309
TABLEFORMAT_END
  1
CELLSTYLE_BEGIN
 90
        2
 91
        1
300
_HEADER
309
CELLSTYLE_END
300
CELLSTYLE
  1
TABLEFORMAT_BEGIN
 90
        5
170
     1
 91
        0
 92
        0
 62
   257
 93
        1
300
CONTENTFORMAT
  1
CONTENTFORMAT_BEGIN
 90
        0
 91
        0
 92
      512
 93
        0
300

 40
0.0
140
1.0
 94
        2
 62
     0
340
11
144
0.18
309
CONTENTFORMAT_END
171
     0
 94
        6
 95
        1
302
GRIDFORMAT
  1
GRIDFORMAT_BEGIN
 90
        0
 91
        1
 62
     0
 92
       -2
340
0
 93
        0
 40
0.045
309
GRIDFORMAT_END
 95
        2
302
GRIDFORMAT
  1
GRIDFORMAT_BEGIN
 90
        0
 91
        1
 62
     0
 92
       -2
340
0
 93
        0
 40
0.045
309
GRIDFORMAT_END
 95
        4
302
GRIDFORMAT
  1
GRIDFORMAT_BEGIN
 90
        0
 91
        1
 62
     0
 92
       -2
340
0
 93
        0
 40
0.045
309
GRIDFORMAT_END
 95
        8
302
GRIDFORMAT
  1
GRIDFORMAT_BEGIN
 90
        0
 91
        1
 62
     0
 92
       -2
340
0
 93
        0
 40
0.045
309
GRIDFORMAT_END
 95
       16
302
GRIDFORMAT
  1
GRIDFORMAT_BEGIN
 90
        0
 91
        1
 62
     0
 92
       -2
340
0
 93
        0
 40
0.045
309
GRIDFORMAT_END
 95
       32
302
GRIDFORMAT
  1
GRIDFORMAT_BEGIN
 90
        0
 91
        1
 62
     0
 92
       -2
340
0
 93
        0
 40
0.045
309
GRIDFORMAT_END
309
TABLEFORMAT_END
  1
CELLSTYLE_BEGIN
 90
        3
 91
        2
300
_DATA
309
CELLSTYLE_END
  0
ENDSEC
  0
EOF
